PrimaNota.ru - самый крупный в мире бесплатный архив песенных текстов, аккордов, табулатур и нот


Kataklysm - The Vultures Are Watching - текст песни, таба, бас-таба, видео

Регистрация Запомнить меня
Войти через:  Facebook Google Twitter Vk Yandex Mail.ru

Kataklysm - The Vultures Are Watching - текст песни, таба, бас-таба, видео

Печатать
Просмотров: 164
                            THE VULTURES ARE WATCHING
                            As recorded by Kataklysm
                          (From the 2008 Album PREVAIL)

Words and Music by Kataklysm
Arranged by Kataklysm
Transcribed by Simon Montague-Bassett

Gtr I (B F# B E G# C#) - 'Jean-François Dagenais'
Gtr II (B F# B E G# C#) - 'Jean-François Dagenais - Harmony'
Gtr III (B F# B E G# C#) - 'Jean-François Dagenais - Solo'

   Intro
    Q=150
   4/4
    Gtrs I, II
    S S S S S S S S S S S S S S S S   S S S S S S S S S S S S S S S S
||----------------------------------|---------------------------------|
||o---------------------------------|---------------------------------|
||----------------------------------|---------------------------------|
||------------------7-7-7-7---------|-----------------7-7-7-7---------|
||o---------5-5-5-5---------5-5-5-5-|---------5-5-5-5---------5-5-5-5-|
||--0-0-0-0-------------------------|-0-0-0-0-------------------------|


  S S S S S S S S S S S S S S S S   S S S S S S S S S S S S S S S S  6x
|---------------------------------|----------------------------------||
|---------------------------------|---------------------------------o||
|---------------------------------|----------------------------------||
|-----------------7-7-7-7---------|-----------------7-7-7-7----------||
|---------8-8-8-8---------8-8-8-8-|---------7-7-7-7---------7-7-7-7-o||
|-8-8-8-8-------------------------|-7-7-7-7--------------------------||


 2/4
  E Q  E
|-----------|
|-----------|
|-----------|
|-0---------|
|-0---------|
|-0---------|


 Verse
 4/4
    PM--|   PM|     PM----|             PM--|   PM|     PM----|
  E E E E E E E E   E E E E E E E E   E E E E E E E E   E E E E E E E E
|-----------------|-----------------|-----------------|------------------|
|-----------------|-----------------|-----------------|------------------|
|-----------------|-----------------|-----------------|------------------|
|-0-------0-----0-|-----------------|---------0-----0-|---------0-0-0-0--|
|-0-------0-----0-|---------3-5-5-5-|-0-------0-----0-|---------8-8-8-8--|
|-0-0-0-0-0-0-0-0-|-0-0-0-0-3-5-5-5-|-0-0-0-0-0-0-0-0-|-0-0-0-0-8-8-8-8--|


      PM--|   PM|     PM----|             PM--|   PM|     PM----|
    E E E E E E E E   E E E E E E E E   E E E E E E E E   E E E E E E E E   3x
||------------------|-----------------|-----------------|-------------------||
||o-----------------|-----------------|-----------------|------------------o||
||------------------|-----------------|-----------------|-------------------||
||----------0-----0-|-----------------|---------0-----0-|---------0-0-0-0---||
||o-0-------0-----0-|---------3-5-5-5-|-0-------0-----0-|---------8-8-8-8--o||
||--0-0-0-0-0-0-0-0-|-0-0-0-0-3-5-5-5-|-0-0-0-0-0-0-0-0-|-0-0-0-0-8-8-8-8---||


   Pre-Chorus
    Gtr I
    S S S S S S S S S S S S S S S S   S S S S S S S S S S S S S S S S
||----------------------------------|----------------------------------|
||o---------------------------------|----------------------------------|
||----------------------------------|----------------------------------|
||----------------------------------|-------------------------2-2-2-2--|
||o-----------------0-0-0-0-5-5-5-5-|-3-3-3-3-3-3-3-3-3-3-3-3----------|
||--0-0-0-0-0-0-0-0-----------------|----------------------------------|
|
|   Gtr II
|   S S S S S S S S S S S S S S S S   S S S S S S S S S S S S S S S S
||----------------------------------|----------------------------------|
||o---------------------------------|----------------------------------|
||----------------------------------|----------------------------------|
||----------------------------------|-------------------------2-2-2-2--|
||o-----------------0-0-0-0-5-5-5-5-|-----------------3-3-3-3----------|
||--0-0-0-0-0-0-0-0-----------------|-0-0-0-0-0-0-0-0------------------|


  S S S S S S S S S S S S S S S S   S S S S S S S S S S S S S S S S
|---------------------------------|----------------------------------||
|---------------------------------|---------------------------------o||
|---------------------------------|----------------------------------||
|-0-0-0-0-0-0-0-0-2-2-2-2-3-3-3-3-|-5-5-5-5-3-3-3-3-2-2-2-2----------||
|---------------------------------|-------------------------3-3-3-3-o||
|---------------------------------|----------------------------------||
|
| S S S S S S S S S S S S S S S S   S S S S S S S S S S S S S S S S
|---------------------------------|----------------------------------||
|---------------------------------|---------------------------------o||
|---------------------------------|----------------------------------||
|-----------------2-2-2-2-3-3-3-3-|-5-5-5-5-3-3-3-3-2-2-2-2----------||
|---------------------------------|-------------------------3-3-3-3-o||
|-0-0-0-0-0-0-0-0-----------------|----------------------------------||


  S S S S S S S S S S S S S S S S   S S S S S S S S S S S S S S S S
|---------------------------------|---------------------------------|
|---------------------------------|---------------------------------|
|---------------------------------|---------------------------------|
|---------------------------------|-------------------------0-0-2-2-|
|-----------------1-1-1-1-3-3-5-5-|-3-3-3-3-3-3-3-3-3-3-3-3---------|
|-0-0-0-0-0-0-0-0-----------------|---------------------------------|
|
| S S S S S S S S S S S S S S S S   S S S S S S S S S S S S S S S S
|---------------------------------|---------------------------------|
|---------------------------------|---------------------------------|
|---------------------------------|---------------------------------|
|-----------------0-0-0-2-2-2-3-3-|-2-2-2-2-2-2-2-2-2-2-2-2-3-3-5-5-|
|---------------------------------|---------------------------------|
|-0-0-0-0-0-0-0-0-----------------|---------------------------------|


  S S S S S S S S S S S S S S S S   S S S S S S S S S S S S S S S S
|---------------------------------|---------------------------------|
|---------------------------------|---------------------------------|
|---------------------------------|---------------------------------|
|-0-0-0-0-0-0-0-0-2-2-2-2-3-3-3-3-|-5-5-5-5-3-3-3-3-2-2-2-2---------|
|---------------------------------|-------------------------3-3-3-3-|
|---------------------------------|---------------------------------|
|
| S S S S S S S S S S S S S S S S   S S S S S S S S S S S S S S S S
|---------------------------------|---------------------------------|
|---------------------------------|---------------------------------|
|-------------------------2-2-2-2-|-3-3-3-3-2-2-2-2-----------------|
|-3-3-3-3-3-3-3-3-5-5-5-5---------|-----------------5-5-5-5-3-3-3-3-|
|---------------------------------|---------------------------------|
|---------------------------------|---------------------------------|


  S S S S S S S S S S S S S S S S   S S S S S S S S S S S S S S S S
|---------------------------------|---------------------------------|
|---------------------------------|---------------------------------|
|---------------------------------|---------------------------------|
|---------------------------------|-------------------------0-0-2-2-|
|-----------------1-1-1-1-3-3-5-5-|-3-3-3-3-3-3-3-3-3-3-3-3---------|
|-0-0-0-0-0-0-0-0-----------------|---------------------------------|
|
| S S S S S S S S S S S S S S S S   S S S S S S S S S S S S S S S S
|---------------------------------|---------------------------------|
|---------------------------------|---------------------------------|
|---------------------------------|---------------------------------|
|-----------------0-0-0-2-2-2-3-3-|-2-2-2-2-2-2-2-2-2-2-2-2-3-3-5-5-|
|---------------------------------|---------------------------------|
|-0-0-0-0-0-0-0-0-----------------|---------------------------------|


  S S S S S S S S S S S S S S S S   S S S S S S S S S S S S Q
|---------------------------------|---------------------------------|
|---------------------------------|---------------------------------|
|---------------------------------|---------------------------------|
|-0-0-0-0-0-0-0-0-2-2-2-2-3-3-3-3-|-5-5-5-5-3-3-3-3-2-2-2-2---------|
|---------------------------------|-------------------------3-------|
|---------------------------------|-------------------------5-------|
|
| S S S S S S S S S S S S S S S S   S S S S S S S S S S S S S S S S
|---------------------------------|---------------------------------|
|---------------------------------|---------------------------------|
|-------------------------2-2-2-2-|-3-3-3-3-2-2-2-2-----------------|
|-3-3-3-3-3-3-3-3-5-5-5-5---------|-----------------5-5-5-5-3-3-3-3-|
|---------------------------------|---------------------------------|
|---------------------------------|---------------------------------|


   Chorus
    Gtr I
     S  S  S  S  S  S  S  S  S  S  S  S  S  S  S  S
||--------------------------------------------------|
||o-------------------------------------------------|
||---0--0--0--0--0--0--0--0--0--0--0--0--0--0--0--0-|
||--------------------------------------------------|
||o-------------------------------------------------|
||--------------------------------------------------|
|
|   Gtr II
|    S  S  S  S  S  S  S  S  S  S  S  S  S  S  S  S
||--------------------------------------------------|
||o-------------------------------------------------|
||--------------------------------------------------|
||--------------------------------------------------|
||o-10-10-10-10-10-10-10-10-10-10-10-10-10-10-10-10-|
||---0--0--0--0--0--0--0--0--0--0--0--0--0--0--0--0-|


   S  S  S  S  S  S  S  S  S  S  S  S  S  S  S  S
|--------------------------------------------------|
|--------------------------------------------------|
|--3--3--3--3--3--3--3--3--7--7--7--7--7--7--7--7--|
|--------------------------------------------------|
|--------------------------------------------------|
|--------------------------------------------------|
|
|  S  S  S  S  S  S  S  S  S  S  S  S  S  S  S  S
|--------------------------------------------------|
|--------------------------------------------------|
|--------------------------------------------------|
|--------------------------------------------------|
|-10-10-10-10-10-10-10-10-10-10-10-10-10-10-10-10--|
|--0--0--0--0--0--0--0--0--0--0--0--0--0--0--0--0--|


   S  S  S  S  S  S  S  S  S  S  S  S  S  S  S  S
|-------------------------------------------------|
|-------------------------------------------------|
|--5--5--5--5--5--5--5--5--5--5--5--5--5--5--5--5-|
|-------------------------------------------------|
|-------------------------------------------------|
|-------------------------------------------------|
|
|  S  S  S  S  S  S  S  S  S  S  S  S  S  S  S  S
|-------------------------------------------------|
|-------------------------------------------------|
|-------------------------------------------------|
|-------------------------------------------------|
|-10-10-10-10-10-10-10-10-10-10-10-10-10-10-10-10-|
|--0--0--0--0--0--0--0--0--0--0--0--0--0--0--0--0-|


  S S S S S S S S S S S S S S S S  4x
|----------------------------------||
|---------------------------------o||
|-3-3-3-3-3-3-3-3-2-2-2-2-2-2-2-2--||
|----------------------------------||
|---------------------------------o||
|----------------------------------||
|
| S S S S S S S S S S S S S S S S  4x
|----------------------------------||
|---------------------------------o||
|----------------------------------||
|----------------------------------||
|-8-8-8-8-8-8-8-8-8-8-8-8-8-8-8-8-o||
|-0-0-0-0-0-0-0-0-0-0-0-0-0-0-0-0--||


  Gtrs I, II
  W
|------|
|------|
|------|
|------|
|-5----|
|-5----|


   Intro repeated
    S S S S S S S S S S S S S S S S   S S S S S S S S S S S S S S S S
||----------------------------------|----------------------------------|
||o---------------------------------|----------------------------------|
||----------------------------------|----------------------------------|
||------------------7-7-7-7---------|-----------------7-7-7-7----------|
||o---------5-5-5-5---------5-5-5-5-|---------5-5-5-5---------5-5-5-5--|
||--0-0-0-0-------------------------|-0-0-0-0--------------------------|


  S S S S S S S S S S S S S S S S   S S S S S S S S S S S S S S S S  4x
|---------------------------------|----------------------------------||
|---------------------------------|---------------------------------o||
|---------------------------------|----------------------------------||
|-----------------7-7-7-7---------|-----------------7-7-7-7----------||
|---------8-8-8-8---------8-8-8-8-|---------7-7-7-7---------7-7-7-7-o||
|-8-8-8-8-------------------------|-7-7-7-7--------------------------||


   Verse
      PM--|   PM|     PM----|             PM--|   PM|     PM----|
    E E E E E E E E   E E E E E E E E   E E E E E E E E   E E E E E E E E   4x
||------------------|-----------------|-----------------|-------------------||
||o-----------------|-----------------|-----------------|------------------o||
||------------------|-----------------|-----------------|-------------------||
||----------0-----0-|-----------------|---------0-----0-|---------0-0-0-0---||
||o-0-------0-----0-|---------3-5-5-5-|-0-------0-----0-|---------8-8-8-8--o||
||--0-0-0-0-0-0-0-0-|-0-0-0-0-3-5-5-5-|-0-0-0-0-0-0-0-0-|-0-0-0-0-8-8-8-8---||


   Pre-Chorus
    Gtr I
    S S S S S S S S S S S S S S S S   S S S S S S S S S S S S S S S S
||----------------------------------|----------------------------------|
||o---------------------------------|----------------------------------|
||----------------------------------|----------------------------------|
||----------------------------------|-------------------------2-2-2-2--|
||o-----------------0-0-0-0-5-5-5-5-|-3-3-3-3-3-3-3-3-3-3-3-3----------|
||--0-0-0-0-0-0-0-0-----------------|----------------------------------|
|
|   Gtr II
|   S S S S S S S S S S S S S S S S   S S S S S S S S S S S S S S S S
||----------------------------------|----------------------------------|
||o---------------------------------|----------------------------------|
||----------------------------------|----------------------------------|
||----------------------------------|-------------------------2-2-2-2--|
||o-----------------0-0-0-0-5-5-5-5-|-----------------3-3-3-3----------|
||--0-0-0-0-0-0-0-0-----------------|-0-0-0-0-0-0-0-0------------------|


  S S S S S S S S S S S S S S S S   S S S S S S S S S S S S S S S S
|---------------------------------|----------------------------------||
|---------------------------------|---------------------------------o||
|---------------------------------|----------------------------------||
|-0-0-0-0-0-0-0-0-2-2-2-2-3-3-3-3-|-5-5-5-5-3-3-3-3-2-2-2-2----------||
|---------------------------------|-------------------------3-3-3-3-o||
|---------------------------------|----------------------------------||
|
| S S S S S S S S S S S S S S S S   S S S S S S S S S S S S S S S S
|---------------------------------|----------------------------------||
|---------------------------------|---------------------------------o||
|---------------------------------|----------------------------------||
|-----------------2-2-2-2-3-3-3-3-|-5-5-5-5-3-3-3-3-2-2-2-2----------||
|---------------------------------|-------------------------3-3-3-3-o||
|-0-0-0-0-0-0-0-0-----------------|----------------------------------||


    S S S S S S S S S S S S S S S S   S S S S S S S S S S S S S S S S
||----------------------------------|--------------------------------|
||o---------------------------------|--------------------------------|
||----------------------------------|--------------------------------|
||----------------------------------|-------------------------0-0-2-2|
||o-----------------1-1-1-1-3-3-5-5-|-3-3-3-3-3-3-3-3-3-3-3-3--------|
||--0-0-0-0-0-0-0-0-----------------|--------------------------------|
|
|   S S S S S S S S S S S S S S S S   S S S S S S S S S S S S S S S S
||----------------------------------|--------------------------------|
||o---------------------------------|--------------------------------|
||----------------------------------|--------------------------------|
||------------------0-0-0-2-2-2-3-3-|-2-2-2-2-2-2-2-2-2-2-2-2-3-3-5-5|
||o---------------------------------|--------------------------------|
||--0-0-0-0-0-0-0-0-----------------|--------------------------------|


  S S S S S S S S S S S S S S S S   S S S S S S S S S S S S S S S S
|---------------------------------|----------------------------------||
|---------------------------------|---------------------------------o||
|---------------------------------|----------------------------------||
|-0-0-0-0-0-0-0-0-2-2-2-2-3-3-3-3-|-5-5-5-5-3-3-3-3-2-2-2-2----------||
|---------------------------------|-------------------------3-3-3-3-o||
|---------------------------------|----------------------------------||
|
| S S S S S S S S S S S S S S S S   S S S S S S S S S S S S S S S S
|---------------------------------|----------------------------------||
|---------------------------------|---------------------------------o||
|-------------------------2-2-2-2-|-3-3-3-3-2-2-2-2------------------||
|-3-3-3-3-3-3-3-3-5-5-5-5---------|-----------------5-5-5-5-3-3-3-3--||
|---------------------------------|---------------------------------o||
|---------------------------------|----------------------------------||


   Chorus
    Gtr I
     S  S  S  S  S  S  S  S  S  S  S  S  S  S  S  S
||--------------------------------------------------|
||o-------------------------------------------------|
||---0--0--0--0--0--0--0--0--0--0--0--0--0--0--0--0-|
||--------------------------------------------------|
||o-------------------------------------------------|
||--------------------------------------------------|
|
|   Gtr II
|    S  S  S  S  S  S  S  S  S  S  S  S  S  S  S  S
||--------------------------------------------------|
||o-------------------------------------------------|
||--------------------------------------------------|
||--------------------------------------------------|
||o-10-10-10-10-10-10-10-10-10-10-10-10-10-10-10-10-|
||---0--0--0--0--0--0--0--0--0--0--0--0--0--0--0--0-|


   S  S  S  S  S  S  S  S  S  S  S  S  S  S  S  S
|--------------------------------------------------|
|--------------------------------------------------|
|--3--3--3--3--3--3--3--3--7--7--7--7--7--7--7--7--|
|--------------------------------------------------|
|--------------------------------------------------|
|--------------------------------------------------|
|
|  S  S  S  S  S  S  S  S  S  S  S  S  S  S  S  S
|--------------------------------------------------|
|--------------------------------------------------|
|--------------------------------------------------|
|--------------------------------------------------|
|-10-10-10-10-10-10-10-10-10-10-10-10-10-10-10-10--|
|--0--0--0--0--0--0--0--0--0--0--0--0--0--0--0--0--|


   S  S  S  S  S  S  S  S  S  S  S  S  S  S  S  S
|-------------------------------------------------|
|-------------------------------------------------|
|--5--5--5--5--5--5--5--5--5--5--5--5--5--5--5--5-|
|-------------------------------------------------|
|-------------------------------------------------|
|-------------------------------------------------|
|
|  S  S  S  S  S  S  S  S  S  S  S  S  S  S  S  S
|-------------------------------------------------|
|-------------------------------------------------|
|-------------------------------------------------|
|-------------------------------------------------|
|-10-10-10-10-10-10-10-10-10-10-10-10-10-10-10-10-|
|--0--0--0--0--0--0--0--0--0--0--0--0--0--0--0--0-|


  S S S S S S S S S S S S S S S S  4x
|----------------------------------||
|---------------------------------o||
|-3-3-3-3-3-3-3-3-2-2-2-2-2-2-2-2--||
|----------------------------------||
|---------------------------------o||
|----------------------------------||
|
| S S S S S S S S S S S S S S S S  4x
|----------------------------------||
|---------------------------------o||
|----------------------------------||
|----------------------------------||
|-8-8-8-8-8-8-8-8-8-8-8-8-8-8-8-8-o||
|-0-0-0-0-0-0-0-0-0-0-0-0-0-0-0-0--||


 Bridge
  Gtrs I, II
  W          +W
|----------|--------|
|----------|--------|
|----------|--------|
|-0--------|-(0)----|
|-0--------|-(0)----|
|-0--------|-(0)----|


  Gtr I
  E   E   Q       H                 W
|---------------------------------|---------------------------------|
|---------------------------------|---------------------------------|
|---------------------------------|---------------------------------|
|---------------------------------|---------------------------------|
|-0-------------------------------|---------------------------------|
|-0-------------------------------|---------------------------------|
|
| Gtr II
| S S S S S S S S S S S S S S S S   S S S S S S S S S S S S S S S S
|---------------------------------|---------------------------------|
|---------------------------------|---------------------------------|
|---------------------------------|---------------------------------|
|---------------------------------|---------------------------------|
|---------7-7-------------7-7-----|---------8-8-------------8-8-----|
|-0-0-7-7-----7-7-0-0-7-7-----7-7-|-0-0-8-8-----8-8-0-0-8-8-----8-8-|


  W
|---------------------------------------------|
|---------------------------------------------|
|---------------------------------------------|
|---------------------------------------------|
|---------------------------------------------|
|---------------------------------------------|
|
| S S  S  S  S  S  S  S S S  S  S  S  S  S  S
|---------------------------------------------|
|---------------------------------------------|
|---------------------------------------------|
|---------------------------------------------|
|-----------10-10-----------------10-10-------|
|-0-0-10-10-------10-10-0-0-10-10-------10-10-|


  W
|---------------------------------|
|---------------------------------|
|---------------------------------|
|---------------------------------|
|---------------------------------|
|---------------------------------|
|
| S S S S S S S S S S S S S S S S
|---------------------------------|
|---------------------------------|
|---------------------------------|
|---------------------------------|
|---------5-5-------------5-5-----|
|-0-0-5-5-----5-5-0-0-5-5-----5-5-|


    Gtrs I, II
    S S S S S S S S S S S S S S S S   S S S S S S S S S S S S S S S S
||----------------------------------|----------------------------------|
||o---------------------------------|----------------------------------|
||----------------------------------|----------------------------------|
||----------------------------------|----------------------------------|
||o---------7-7-------------7-7-----|---------8-8-------------8-8------|
||--0-0-7-7-----7-7-0-0-7-7-----7-7-|-0-0-8-8-----8-8-0-0-8-8-----8-8--|


  S S  S  S  S  S  S  S S S  S  S  S  S  S  S
|---------------------------------------------|
|---------------------------------------------|
|---------------------------------------------|
|---------------------------------------------|
|-----------10-10-----------------10-10-------|
|-0-0-10-10-------10-10-0-0-10-10-------10-10-|


  S S S S S S S S S S S S S S S S  5x
|----------------------------------||
|---------------------------------o||
|----------------------------------||
|----------------------------------||
|---------5-5-------------5-5-----o||
|-0-0-5-5-----5-5-0-0-5-5-----5-5--||


 Outro + Solo
  Gtr I
  W          +W
|----------|--------|
|----------|--------|
|----------|--------|
|-0--------|-(0)----|
|-0--------|-(0)----|
|-0--------|-(0)----|
|
| Gtr II
| W          +W
|----------|--------|
|----------|--------|
|----------|--------|
|-0--------|-(0)----|
|-0--------|-(0)----|
|-0--------|-(0)----|


  +W             +W
|--------------|--------------|
|--------------|--------------|
|--------------|--------------|
|-(0)----------|-(0)----------|
|-(0)----------|-(0)----------|
|-(0)----------|-(0)----------|
|
|  PM--|          PM--|
|  Q   Q  H       Q   Q  H
|--------------|--------------|
|--------------|--------------|
|--------------|--------------|
|--------------|--------------|
|--0---0--1----|--0---0--1----|
|--0---0--1----|--0---0--1----|


  W                 W
|-----------------|-----------------|
|-----------------|-----------------|
|-----------------|-----------------|
|-----------------|-----------------|
|-----------------|-----------------|
|-----------------|-----------------|
|
| E E E E E E E E   E E E E E E E E
|-----------------|-----------------|
|-----------------|-----------------|
|-----------------|-----------------|
|-----------------|-----------------|
|-1-1-1-1-1-1-1-1-|-0-0-0-0-0-0-0-0-|
|-3-3-3-3-3-3-3-3-|-2-2-2-2-2-2-2-2-|


  W              W
|--------------|--------------|
|--------------|--------------|
|--------------|--------------|
|--------------|--------------|
|--------------|--------------|
|--------------|--------------|
|
| PM----|        PM----|
| E E E E H      E E E E H
|--------------|--------------|
|--------------|--------------|
|--------------|--------------|
|--------------|--------------|
|-0-0-0-0-1----|-0-0-0-0-1----|
|-0-0-0-0-1----|-0-0-0-0-1----|


  W                 W
|-----------------|-----------------|
|-----------------|-----------------|
|-----------------|-----------------|
|-----------------|-----------------|
|-----------------|-----------------|
|-----------------|-----------------|
|
| E E E E E E E E   E E E E E E E E
|-----------------|-----------------|
|-----------------|-----------------|
|-----------------|-----------------|
|-----------------|-----------------|
|-1-1-1-1-1-1-1-1-|-0-0-0-0-0-0-0-0-|
|-3-3-3-3-3-3-3-3-|-2-2-2-2-2-2-2-2-|


  Gtrs I, II
   PM----|                PM----|
   Q     Q    H           Q     Q    H            E      E  E  E  E  E  E        E
|----------------------|----------------------|------------------------------------------|
|----------------------|----------------------|------------------------------------------|
|----------------------|----------------------|------------------------------------------|
|----------------------|----------------------|------------------------------------------|
|--0-----0----1--------|--0-----0----1--------|---1------1--1--1--1--1--1--------1-------|
|--0-----0----1--------|--0-----0----1--------|---3------3--3--3--3--3--3--------3-------|
|
| Gtr III
|             ~~~~~~~                ~~~~~~~~~~~~~~~~~~~
|                                                                       |--3--|  |--3--|
|  H         +H           H         +H           +E      E  E  E  e  E  S  S  S  S  S  S
|-13--------(13)-------|-12--------(12)-------|-(12)----12-12-13-15-13-12h13p12----------|
|-16b18-----(16)b18----|-15b17-----(15)b17----|-(15)b17-------------------------15-14h15-|
|----------------------|----------------------|------------------------------------------|
|----------------------|----------------------|------------------------------------------|
|----------------------|----------------------|------------------------------------------|
|----------------------|----------------------|------------------------------------------|


   E        E        E        E        E     E     E     E
|----------------------------------------------------------------|
|----------------------------------------------------------------|
|----------------------------------------------------------------|
|----------------------------------------------------------------|
|--0--------0--------0--------0--------0-----0-----0-----0-------|
|--2--------2--------2--------2--------2-----2-----2-----2-------|
|
|  |------6-------|  |--3--|  |--3--|
|  S  S  S  S  S  S  S  S  S  S  S  S  S  S  S  S  S  S  S  S
|-12h13h15p13p12----------13-15p13p12----------------------------|
|----------------15-14h15-------------15-13-15-12-13----13-------|
|----------------------------------------------------15----14----|
|----------------------------------------------------------------|
|----------------------------------------------------------------|
|----------------------------------------------------------------|


   PM------------------------|
   E        E        E        E        H
|-------------------------------------------------------------------------|
|-------------------------------------------------------------------------|
|-------------------------------------------------------------------------|
|-------------------------------------------------------------------------|
|--0--------0--------0--------0--------1----------------------------------|
|--0--------0--------0--------0--------1----------------------------------|
|
|  |--3--|  |--3--|  |--3--|  |--3--|  |--3--|  |--3--|  |--3--|  |--3--|
|  S  S  S  S  S  S  S  S  S  S  S  S  S  S  S  S  S  S  S  S  S  S  S  S
|-------------------------------------------------------------------------|
|-------------------------------------------------------------------------|
|-15-14-12-14h15p14p12h14p12----12----------------------------------------|
|----------------------------15----15p14h15-12h14-15-12-14h15p12----12----|
|----------------------------------------------------------------15----15-|
|-------------------------------------------------------------------------|


   PM------------------------|
   E        E        E        E        H
|--------------------------------------------------------------------------|
|--------------------------------------------------------------------------|
|--------------------------------------------------------------------------|
|--------------------------------------------------------------------------|
|--0--------0--------0--------0--------1-----------------------------------|
|--0--------0--------0--------0--------1-----------------------------------|
|
|  |--3--|  |--3--|  |--3--|  |--3--|  |--3--|  |--3--|  |--3--|  |--3--|
|  S  S  S  S  S  S  S  S  S  S  S  S  S  S  S  S  S  S  S  S  S  S  S  S
|--------------------------------------------------------------------------|
|--------------------------------------------------------------------------|
|--------------------------------------------------------------------------|
|-12----12-14h15p14----14----12h14p12-15p12----14p12----12-14--------------|
|----15-------------15----15----------------15-------15-------12-15p13-----|
|----------------------------------------------------------------------15--|


   E         E  E   E     E   E       E  E       E E E  E   E E E E
|------------------------------------------|------------------------|
|------------------------------------------|------------------------|
|------------------------------------------|------------------------|
|------------------------------------------|------------------------|
|--1---------1--1---1-----1---1-------1--1-|-----0-0-0--0---0-0-0-0-|
|--3---------3--3---3-----3---3-------3--3-|-----2-2-2--2---2-2-2-2-|
|
|        ~~~~~~~~~~~~~~~~~~~~~~~~~~~~~~~~
|  |--3--|
|  S  S  S  +Q     +S  S +E  +S   S  +Q       a  E Q    S S H
|------------------------------------------|------------------------|
|------------------------------------------|------------------------|
|------------------------------------------|------------------------|
|------------------------------------------|------------------------|
|-10s12-10-(10)---(10)s8-(8)-(8)s10-(10)---|-10s12-8---10-8-7-------|
|------------------------------------------|------------------------|


   PM----|                     PM-|
   Q     Q    H                Q  Q    H
|---------------------------|---------------------|
|---------------------------|---------------------|
|---------------------------|---------------------|
|---------------------------|---------------------|
|--0-----0----1-------------|--0--0----1----------|
|--0-----0----1-------------|--0--0----1----------|
|
|                              ~~~~~~~~~~~
|             |-----3-----|            |---3----|
|  H         +Q      Q    Q    H      +Q   Q    Q
|---------------------------|---------------------|
|---------------------------|-----------------/13-|
|-----------------------/14-|-12-----(12)-10------|
|-12b14-----(12)b14-12------|---------------------|
|---------------------------|---------------------|
|---------------------------|---------------------|


   E E    E    E   E E    E    E    E E E E E E E E
|--------------------------------|------------------|
|--------------------------------|------------------|
|--------------------------------|------------------|
|--------------------------------|------------------|
|--1-1----1----1---1-1----1----1-|--0-0-0-0-0-0-0-0-|
|--3-3----3----3---3-3----3----3-|--2-2-2-2-2-2-2-2-|
|
|                                   ~~
|  |----3----|     |----3----|
|  Q    Q    Q     Q    Q    Q      W
|--------------------------------|------------------|
|-11---10------------------------|------------------|
|-----------10---/12-------------|------------------|
|----------------------10s==12---|-14---------------|
|--------------------------------|------------------|
|--------------------------------|------------------|


    PM----------------|
    E   E     E        E        H
|------------------------------------------------------------------|
|------------------------------------------------------------------|
|------------------------------------------------------------------|
|------------------------------------------------------------------|
|---0---0-----0--------0--------1----------------------------------|
|---0---0-----0--------0--------1----------------------------------|
|
|             |--3--|  |--3--|  |--3--|  |--3--|  |--3--|  |--3--|
|   E   S  S  S  S  S  S  S  S  S  S  S  S  S  S  S  S  S  S  S  S
|------------------------------------------------------------12-12-|
|---------------------------------------------------------14-------|
|---------------------------------------------------12h15----------|
|-[15]-12-14-15-14-12-14-12----12-14-14-15-14-12-15----------------|
|---------------------------15-------------------------------------|
|------------------------------------------------------------------|


   PM---------------------|
   E        E        E     E     H
|-------------------------------------------------------------------|
|-------------------------------------------------------------------|
|-------------------------------------------------------------------|
|-------------------------------------------------------------------|
|--0--------0--------0-----0-----1----------------------------------|
|--0--------0--------0-----0-----1----------------------------------|
|
|  |--3--|  |--3--|              |--3--|  |--3--|  |--3--|  |--3--|
|  S  S  S  S  S  S  S  S  S  S  S  S  S  S  S  S  S  S  S  S  S  S
|-12h13p12----12s15-16h17p16p13h15p13s12-13-12----12----------------|
|----------15----------------------------------15----15-14-15-14-13-|
|-------------------------------------------------------------------|
|-------------------------------------------------------------------|
|-------------------------------------------------------------------|
|-------------------------------------------------------------------|


   E        E        E        E        E        E        E        E
|-------------------------------------------------------------------------|
|-------------------------------------------------------------------------|
|-------------------------------------------------------------------------|
|-------------------------------------------------------------------------|
|--1--------1--------1--------1--------1--------1--------1--------1-------|
|--3--------3--------3--------3--------3--------3--------3--------3-------|
|
|  |--3--|  |--3--|  |--3--|  |--3--|  |--3--|  |--3--|  |--3--|  |--3--|
|  S  S  S  S  S  S  S  S  S  S  S  S  S  S  S  S  S  S  S  S  S  S  S  S
|-------------------------------------------------------------------------|
|-14h15p14-13-12----14p13-------------------------------------------------|
|----------------15-------15-14p13-15-14p12-------------------------------|
|-------------------------------------------14-15p14p12h14p12-------------|
|-------------------------------------------------------------15-13p12h13-|
|-------------------------------------------------------------------------|


   E        E        E        E        E        E        E        E
|--------------------------------------------------------------------------|
|--------------------------------------------------------------------------|
|--------------------------------------------------------------------------|
|--------------------------------------------------------------------------|
|--0--------0--------0--------0--------0--------0--------0--------0--------|
|--2--------2--------2--------2--------2--------2--------2--------2--------|
|
|  |--3--|  |--3--|  |--3--|  |--3--|  |--3--|  |--3--|  |--3--|  |--3--|
|  S  S  S  S  S  S  S  S  S  S  S  S  S  S  S  S  S  S  S  S  S  S  S  S
|--------------------------------------------------------------------------|
|--------------------------------------------------------------------------|
|--------------------------------------------------------------------------|
|-------------------------------------15p14p13-14p12----12-14-15-14-15-17--|
|-12-------------12-13h15p13p12-15p13----------------15--------------------|
|----15-13-12h13-----------------------------------------------------------|


   PM-----|           PM-----|
   Q      Q  H        Q      Q    H
|-----------------|-------------------------------------|
|-----------------|-------------------------------------|
|-----------------|-------------------------------------|
|-----------------|-------------------------------------|
|--0------0--1----|---0------0----1---------------------|
|--0------0--1----|---0------0----1---------------------|
|
|  W                 +H          +E       E       Q
|-----------------|-------------------------------------|
|-----------------|-------------------------------------|
|-16--------------|-(16)--------(16)-----16-----(16)----|
|-17b19===========|=(17)b19-----(17)b19-(17)b19--17b19--|
|-----------------|-------------------------------------|
|-----------------|-------------------------------------|


    E       E       E      E       E       E      E       E
|---------------------------------------------------------------|
|---------------------------------------------------------------|
|---------------------------------------------------------------|
|---------------------------------------------------------------|
|---1-------1-------1------1-------1-------1------1-------1-----|
|---3-------3-------3------3-------3-------3------3-------3-----|
|
|  +E       E       E     +E       E       E     +E       E
|---------------------------------------------------------------|
|---------------------------------------------------------------|
|-(16)-----16-----(16)---(16)-----16-----(16)---(16)-----16-----|
|-(17)b19-(17)b19--17b19-(17)b19-(17)b19--17b19-(17)b19-(17)b19-|
|---------------------------------------------------------------|
|---------------------------------------------------------------|


    E      E       E       E        E         E         E    E
|----------------------------------------------------------------|
|----------------------------------------------------------------|
|----------------------------------------------------------------|
|----------------------------------------------------------------|
|---0------0-------0-------0--------0---------0---------0----0---|
|---2------2-------2-------2--------2---------2---------2----2---|
|
|   E     +E       E       E       +E         E         E   +E
|----------------------------------------------------------------|
|----------------------------------------------------------------|
|-(16)---(16)-----16-----(16)-----(16)-------16-------(16)-(16)--|
|--17b19-(17)b19-(17)b19--17b18.5-(17)b18.5-(17)b18.5--17--(17)r-|
|----------------------------------------------------------------|
|----------------------------------------------------------------|


   PM----|          PM-----|
   E E E E H        E  E E E  H
|---------------|------------------------|
|---------------|------------------------|
|---------------|------------------------|
|---------------|------------------------|
|--0-0-0-0-1----|---0--0-0-0--1----------|
|--0-0-0-0-1----|---0--0-0-0--1----------|
|
|  ~~~~~~~~~~~~~~~~~~~~
|  W               +H         E  E  E  E
|---------------|------------------------|
|---------------|------------------------|
|-14------------|------------------------|
|-15------------|-(15)----------------15-|
|---------------|------------17-15-17----|
|---------------|------------------------|


   E    E E E E E  E    E     E     E E E E E E E
|-------------------------|-----------------------|
|-------------------------|-----------------------|
|-------------------------|-----------------------|
|-------------------------|-----------------------|
|--1----1-1-1-1-1--1----1-|---0-----0-0-0-0-0-0-0-|
|--3----3-3-3-3-3--3----3-|---2-----2-2-2-2-2-2-2-|
|
|  ~~~~~                      ~~~~~~~
|  H.              Q         +W
|-------------------------|-----------------------|
|-------------------------|-----------------------|
|-17b19-----------17b19r==|=(17)b18---------------|
|-------------------------|-----------------------|
|-------------------------|-----------------------|
|-------------------------|-----------------------|


   PM----|           PM-----|
   Q     Q  H        Q      Q   H
|----------------|-----------------------------|
|----------------|-----------------------------|
|----------------|-----------------------------|
|----------------|-----------------------------|
|--0-----0--1----|---0------0---1--------------|
|--0-----0--1----|---0------0---1--------------|
|
|                    ~~~~~~~
|                               |-----3-----|
|  W                +H          Q       Q   Q
|----------------|-----------------------------|
|----------------|---------------------10--11r-|
|-12b14----------|-(12)b14-----12b13.5---------|
|----------------|-----------------------------|
|----------------|-----------------------------|
|----------------|-----------------------------|


   E    E E E   E     E  E   E    E E   E   E        E E    E    E
|------------------------------|-----------------------------------|
|------------------------------|-----------------------------------|
|------------------------------|-----------------------------------|
|------------------------------|-----------------------------------|
|--1----1-1-1---1-----1--1---1-|--0-0---0---0--------0-0----0----0-|
|--3----3-3-3---3-----3--3---3-|--2-2---2---2--------2-2----2----2-|
|
|                                 ~~~~~~~~~
|                                           |--3--|  |----3----|
|  H           +Q        E   E    Q    +E   S  S  S  Q    Q    Q
|------------------------------|--------------------10---13---14---|
|-11b13-------(11)b13---11rp10-|-----------------------------------|
|------------------------------|-12---(12)-10h12h14----------------|
|------------------------------|-----------------------------------|
|------------------------------|-----------------------------------|
|------------------------------|-----------------------------------|


   PM--------|          PM---------|
   E     E E E H        E  E   E   E  H
|-------------------|-------------------------|
|-------------------|-------------------------|
|-------------------|-------------------------|
|-------------------|-------------------------|
|--0-----0-0-0-1----|---0--0---0---0--1-------|
|--0-----0-0-0-1----|---0--0---0---0--1-------|
|
|  W                   +Q     +Q      E  Q.
|-14b15=============|=(14)---(14)r---13-12----|
|-------------------|-------------------------|
|-------------------|-------------------------|
|-------------------|-------------------------|
|-------------------|-------------------------|
|-------------------|-------------------------|


   E        E        E        E        E        E        E        E
|-----------------------------------------------------------------------|
|-----------------------------------------------------------------------|
|-----------------------------------------------------------------------|
|-----------------------------------------------------------------------|
|--1--------1--------1--------1--------1--------1--------1--------1-----|
|--3--------3--------3--------3--------3--------3--------3--------3-----|
|
|  |--3--|  |--3--|  |--3--|  |--3--|  |--3--|  |--3--|  |--3--|
|  S  S  S  S  S  S  S  S  S  S  S  S  S  S  S  S  S  S  S  S  S  E
|-13h15p13p12h13p12----------12h13h15p13p12h13----------12-13-15-15b17==|
|-------------------15-14h15-------------------15p14h15-----------------|
|-----------------------------------------------------------------------|
|-----------------------------------------------------------------------|
|-----------------------------------------------------------------------|
|-----------------------------------------------------------------------|


    E     E E E   E   E E E
|----------------------------|
|----------------------------|
|----------------------------|
|----------------------------|
|---0-----0-0-0---0---0-0-0--|
|---2-----2-2-2---2---2-2-2--|
|
|   ~~~~~~~
|  +H            +H
|-(15)b17-------(15)\--------|
|----------------------------|
|----------------------------|
|----------------------------|
|----------------------------|
|----------------------------|


   PM---------|
   Q           Q           H
|-------------------------------------------------|
|-------------------------------------------------|
|-------------------------------------------------|
|-------------------------------------------------|
|--0-----------0-----------1----------------------|
|--0-----------0-----------1----------------------|
|
|              PM------|
|  S  S  S  S  S  S  S  S  S  S  S  S  S  S  S  S
|-16h17p16p13----------------------------13-16-17-|
|-------------15----------------------15----------|
|----------------14----------------14-------------|
|-------------------15----------15----------------|
|----------------------17-16h17-------------------|
|-------------------------------------------------|


   PM---------|
   Q           Q           H
|-------------------------------------------------|
|-------------------------------------------------|
|-------------------------------------------------|
|-------------------------------------------------|
|--0-----------0-----------1----------------------|
|--0-----------0-----------1----------------------|
|
|              PM------|
|  S  S  S  S  S  S  S  S  S  S  S  S  S  S  S  S
|-18p17p16p13----------------------------13-16-17-|
|-------------15----------------------15----------|
|----------------14----------------14-------------|
|-------------------15----------15----------------|
|----------------------17-16h17-------------------|
|-------------------------------------------------|


   E E  E E E E  E        E        E E  E E  E E  E E
|------------------------------|----------------------|
|------------------------------|----------------------|
|------------------------------|----------------------|
|------------------------------|----------------------|
|--1-1--1-1-1-1--1--------1----|---0-0--0-0--0-0--0-0-|
|--3-3--3-3-3-3--3--------3----|---2-2--2-2--2-2--2-2-|
|
|  Q    H        T  T  S  S  S     Q    Q    Q    Q
|-15---13----------------17-18-|-/20------------------|
|---------------------18-------|-------18---17--------|
|---------------17h20----------|-----------------17---|
|------------------------------|----------------------|
|------------------------------|----------------------|
|------------------------------|----------------------|


   PM-------|                  PM-----|
   E    E E E   H              E  E E E   H
|--------------------------|-------------------------|
|--------------------------|-------------------------|
|--------------------------|-------------------------|
|--------------------------|-------------------------|
|--0----0-0-0---1----------|---0--0-0-0---1----------|
|--0----0-0-0---1----------|---0--0-0-0---1----------|
|
|  ~~~~~~~~~~~~~~~~~~~~~~~
|  H           +Q    Q        +H         +Q    Q
|--------------------------|------------------20b22--|
|--------------------------|-------------------------|
|-17b19-------(17)--17b18--|-(17)-------(17)---------|
|--------------------------|-------------------------|
|--------------------------|-------------------------|
|--------------------------|-------------------------|


    E  E E E   E   E      E   E   E E E E E E E E
|-------------------------------|-----------------*|
|-------------------------------|-----------------*|
|-------------------------------|-----------------*|
|-------------------------------|-----------------*|
|---1--1-1-1---1---1------1---1-|-0-0-0-0-0-0-0-0-*|
|---3--3-3-3---3---3------3---3-|-2-2-2-2-2-2-2-2-*|
|
|  +H         +E   E     +E   E   W
|-(20)-------(20)-20b22r(20)-22-|-----------------*|
|-------------------------------|-----------------*|
|-------------------------------|-----------------*|
|-------------------------------|-----------------*|
|-------------------------------|-----------------*|
|-------------------------------|-----------------*|


Duration Legend
---------------
W - whole; H - half; Q - quarter; E - 8th; S - 16th; T - 32nd; X - 64th; a - acciaccatura
+ - note tied to previous; . - note dotted; .. - note double dotted
Uncapitalized letters represent notes that are staccato (1/2 duration)
Irregular groupings are notated above the duration line
Duration letters will always appear directly above the note/fret number it represents the
duration for.  Duration letters with no fret number below them represent rests.  Multi-
bar rests are notated in the form Wxn, where n is the number of bars to rest for.  Low
melody durations appear below the staff

Tablature Legend
----------------
 h   - hammer-on
 p   - pull-off
 b   - bend
 pb  - pre-bend
 r   - bend release (if no number after the r, then release immediately)
 /\  - slide into or out of (from/to "nowhere")
 s   - legato slide
 S   - shift slide
  - natural harmonic
[n]  - artificial harmonic
n(n) - tapped harmonic
 ~   - vibrato
 tr  - trill
 T   - tap
 TP  - trem. picking
 PM  - palm muting
\n/  - tremolo bar dip; n = amount to dip
 \n  - tremolo bar down
 n/  - tremolo bar up
/n\  - tremolo bar inverted dip
 =   - hold bend; also acts as connecting device for hammers/pulls
 <>  - volume swell (louder/softer)
 x   - on rhythm slash represents muted slash
 o   - on rhythm slash represents single note slash

Misc Legend
-----------
 |  - bar
||  - double bar
||o - repeat start
o|| - repeat end
*|  - double bar (ending)
 :  - bar (freetime)
 $  - Segno
 &  - Coda
Tempo markers -  = BPM(8/16=s8/s16), where s8 = swing 8ths, s16 = swing 16ths
Добавлено: 04.03.2012
Другие материалы по этой песне:

Страница создана 02.03.2012
http://primanota.ru/kataklysm/the-vultures-are-watching-chords.htm
Привет, Гость.
Предлагаем пройти революционный курс по гитаре.
Подарок от PrimaNota.Ru, забирай!