PrimaNota.ru - самый крупный в мире бесплатный архив песенных текстов, аккордов, табулатур и нот


Kataklysm - The Last Effort - таба, видео

Регистрация Запомнить меня
Войти через:  Facebook Google Twitter Vk Yandex Mail.ru

Kataklysm - The Last Effort - таба, видео

Печатать
Просмотров: 114
Уроки эстрадного вокала в Санкт-Петербурге
THE LAST EFFORT
TABED BY:(666kataklysm)
__=palm mute
/=slide 

B Tuning (B,E,A,D,Gb,b) 
RIFF 1A
|--------------------------------------------|
|--------------------------------------------|
|--------------------------------------------|
|--9-9-9-9-9-9-777-101010--9-9-9-555-777-444-|
|-101010101010-999-121212-101010-777-999-555-|
|--------------------------------------------|

RIFF1B
|-------------------------------------------|
|-------------------------------------------|
|-------------------------------------------|
|--9-9-9-9-9-9-777-101010--9-9-9-444--------|
|-101010101010-999-121212-101010-555-555555-|
|------------------------------------777777-|

RIFF1C
|-----------------------------------------------------------------|
|-----------------------------------------------------------------|
|-----------------------------------------------------------------|
|--9-9-9-9-9-9-777-101010--9-9-9-555-777-444----------------------|
|-101010101010-999-121212-101010-777-999-555-333/5555/7777/101010-|
|--------------------------------------------555/7777/8888/-9-9-9-|

RIFF 2A
|---------------------------------------------------------------|
|---------------------------------------------------------------|
|---------------------------------------------------------------|
|-5------7--9-7------------------5-----7--9-7-7----5------------|
|-7------9-10-9-10---9----7------7-----9-10-9-5-00-3-00-5-------|
|---00000-------8-00-7-00-5-00000-00000-----------------3-00000-|
    _____         __   __   _____ _____         __   __   _____

RIFF 2B
|----------------------------------------------------|
|----------------------------------------------------|
|----------------------------------------------------|
|-5-------7--9-7-------------------------------------|
|-7-------9-10-9-10----9----7-------5-------5/777/10-|
|---00000---------8-00-7-00-5-00000-3-00000-3/555/8--|
    _____           __   __   _____   _____

RIFF 3
|---------------------------------------------------------------------|
|---------------------------------------------------------------------|
|--9-9-9-9-9-9-555555--------444444-9-9-9-9-9-9--555555---------------|
|-101010101010-777777-555555-555555-101010101010-777777-555555-444444-|
|---------------------777777----------------------------777777-555555-|
|---------------------------------------------------------------------|

RIFF 4A
|--------------------------------|
|--------------------------------|
|--------------------------------|
|-4-------4-2-4-5-------777777---|
|-2-2222--2-0-2-3-00000-555555---|
|--------------------------------|
    ____          _____

RIFF 1A/B/C
RIFF 2A/B/C
RIFF 3
RIFF4A

RIFF 4B
|-----------------------------------------------------|
|-----------------------------------------------------|
|-----------------------------------------------------|
|--------------5-4-2----------------------------------|
|-2------2-----3-2-0-3------2------2------4-5-4-7-5-4-|
|-0-0000-0-0000------1-1111-0-0000-0-0000-2-3-2-5-3-2-|
    ____   ____        ____   ____   ____

FILL
|-----|
|-----|
|-----|
|-----|
|--2--|
|--0--|

RIFF 5A(LOW DISTORTION)
|---------------------------------------|
|---------------------------------------|
|---------------------------------------|
|---5---5-----4--4----5--5-----7--------|
|--7---7--7--5--5--5-7--7--7--9---------|
|-0---0--8--0--0--7-0--0--8--0--5-3-2-0-|

RIFF 5B(LOW DISTORTION)
|---0-00000---2-22222---2-22222---5-55555----|
|-0---00000-0---00000-3---33333-5---55555----|
|--------------------------------------------|
|--------------------------------------------|
|--------------------------------------------|
|--------------------------------------------|

Pat O'Brian
SOLO!

    H.           E   E      E   E   H.             
||------------------10--|--10--12--12~------------|
||----------------------|-------------------------|
||----------------------|-------------------------|
||----------------------|-------------------------|
||----------------------|-------------------------|
||----------------------|-------------------------|


   E   S   S   E   E   E   E   S   S  E      E   S   S  E   E   E   E   E   E   
--22--22p-21p-19------19-----------------|-------------------------------------|
------------------20------20--19h-20-17--|--19--17h-19-15--17--15--14--12--14--|
-----------------------------------------|-------------------------------------|
-----------------------------------------|-------------------------------------|
-----------------------------------------|-------------------------------------|
-----------------------------------------|-------------------------------------|


   S   S  E   E   S  S  E   E   S   S  E      E   H         E  E    E   
------------------------------------------|----------------------------|
--12h-14-----12--12-----------------------|----------------------------|
---------14---------14-12--14--12h-14-11--|--12s--9~--------L--9s--11--|
------------------------------------------|----------------------------|
------------------------------------------|----------------------------|
------------------------------------------|----------------------------|


                                  |--3--|  |--3--|  |----3----|            
   E   E  E   E  E   E  E   E     S  S  S  S  S  S  S  S  E   E  H         
-------------------------------|------------------------------------------|
-------------------------------|------------------------------------------|
--11s--9--9s--7--7s--6--6s--7--|--6h-7p-6h-7p-6h-7p-6h-7p-6h--7--6--------|
-------------------------------|------------------------------------------|
-------------------------------|------------------------------------------|
-------------------------------|------------------------------------------|


  |---3--| |--3-| |--3-|   |--3-| |---3--| |--3--|  |---3--|   |--3--|  
  S  S   S S  S S S S  S   S S  S S  S   S S  S  S  S  S   S   S  S  S  
-----------------------------------------------------------------------|
------------------------------------------------10----10h-12h-14-12-14-|
-----------------------------7----7h-9h-11-9-11----11------------------|
----------------7---7h-9h-11---11--------------------------------------|
--7h-9h-10-9-10---9----------------------------------------------------|
-----------------------------------------------------------------------|


                                                              |---3---|   
   W                     W                   H.           E   S   S   S   
--21b~----------------|--L----------------|--L------------L--19h-21h-22h-|
----------------------|-------------------|------------------------------|
----------------------|-------------------|------------------------------|
----------------------|-------------------|------------------------------|
----------------------|-------------------|------------------------------|
----------------------|-------------------|------------------------------|


   |---3--|  |--3--|  |--3--|                                
   S   S  S  S  S  S  S  S  S  S  S  S  S  S  S  S  S  S  S  
--21p-19----19----------------------------------------------|
---------22----22-20-19----19----19-------------------------|
------------------------21----21----21-19-18----18----------|
---------------------------------------------21----21-19-17-|
------------------------------------------------------------|
------------------------------------------------------------|


   S  S  S  S  S  S  S  S  S  S  S  S  S  S  S  S  
--------------------------------------------------|
--------------------------------------------------|
--------------------------------------------------|
--19----------------------------------------------|
-----22-21-19-17-16-17-19-16----16----------------|
-----------------------------17----17-15-17-15-14-|


   S  S  S  S  S  S  S. E  Q.      T  
-------------------------------------|
-------------------------------------|
-------------------------------------|
-------------------------------------|
-------------------------------------|
--15-14-17-14-12-14-12-10--9~------L-|


   S  S  S  S  S  S  S  S  S  S  S  S  S  S  S  S  
--------------------------------------------------|
--------------------------------------------------|
--------------------------------------------------|
--------------------------------------------11----|
-----------------12----12-14----12-14-12-14----14-|
--12-14-12-14-15----12-------15-------------------|


   S  S  S  S  S  S  S  S  S  S  S  S  S  S  S  S  
--------------------------------------------------|
--------------------------------------------------|
-----------------------11----11-12-11-12-14-12-14-|
--11-12-11-12-14-12-14----14----------------------|
--------------------------------------------------|
--------------------------------------------------|


   S  S  S  S  S  S  S  S  S  S  S  S  S  S  S  S  
-----------------------------12----12----12-14-12-|
--12----12-14-12-14-15-14-15----15----15----------|
-----14-------------------------------------------|
--------------------------------------------------|
--------------------------------------------------|
--------------------------------------------------|


   S  S  S  S  S  S  S  S  S  S  S  S  S  S  S  S  S  S  S  S  S  S  S  S  
--14-15-14-12----------------12-14-19-17-15-------------22-21-19-17-15-14-|
--------------14----------14----------------17-15-14----------------------|
-----------------12----12----------------------------16-------------------|
--------------------14----------------------------------------------------|
--------------------------------------------------------------------------|
--------------------------------------------------------------------------|


                                                              <    
   W                     W                    H.           E  E    
--14b~----------------|--L----------------|---L------------L--0~--|
----------------------|-------------------|-----------------------|
----------------------|-------------------|-----------------------|
----------------------|-------------------|-----------------------|
----------------------|-------------------|-----------------------|
----------------------|-------------------|-----------------------|


  W                   W                   W                                     
  W                   W                   W                   W                 
--0----------------|--L----------------|--L----------------|--L----------------|
-------------------|-------------------|-------------------|-------------------|
-------------------|-------------------|-------------------|-------------------|
-------------------|-------------------|-------------------|-------------------|
-------------------|-------------------|-------------------|-------------------|
-------------------|-------------------|-------------------|-------------------|






Duration Legend
---------------
W - whole
H - half
Q - quarter
E - 8th
S - 16th
T - 32nd
X - 64th
. - note dotted
|-n-|  - n-tuplets


Tablature Legend
----------------
L - tied note
x - dead note
g - grace note
(n) - ghost note
> - accentuded note
NH - natural harmonic
AH - artificial harmonic
TH - tapped harmonic
SH - semi harmonic
PH - pitch harmonic
h - hammer on
p - pull off
b - bend
br - bendRelease
pb - preBend
pbr - preBendRelease
brb - bendReleaseBend
\n/ - tremolo bar dip
\n - tremolo bar dive
-/n - tremolo bar Release up
/n\ - tremolo bar inverted dip
/n - tremolo bar return
-\n - tremolo bar Release down
S - shift slide
s - legato slide
/ -  slide into from below or out of upwards
\ -  slide into from above or out of downwards
~ - vibrato
W - wide vibrato
tr - trill
TP - tremolo picking
T - tapping
S - slap
P - pop
< - fade in
^ - brush up
v - brush down
__


SOLO BACKING
|-------------------------------------|
|-------------------------------------|
|-------------------------------------|
|-------------------------------------|
|-22222222-55555555-77777777-55555555-|
|-00000000-33333333-55555555-33333333-|
  ________ ________ ________ ________

RIFF2A/B/C
RIFF 1

FILL(GUITAR 1)
|--0--|
|--0--|
|-----|
|-----|
|-----|
|-----|

FILL (GUITAR 2)
|-----|
|-----|
|-----|
|-----|
|--2--|
|--0--|

THATS IT IF YOU HAVE ANY QUESTIONS OR COMMENTS EMAIL ME AT pepole_red@yahoo.com

Добавлено: 21.04.2012
Другие материалы по этой песне:

Страница создана 28.02.2012
http://primanota.ru/kataklysm/the-last-effort-chords.htm
Привет, Гость.
Предлагаем пройти революционный курс по гитаре.
Подарок от PrimaNota.Ru, забирай!