PrimaNota.ru - самый крупный в мире бесплатный архив песенных текстов, аккордов, табулатур и нот


Kataklysm - Crippled Broken - таба, видео

Регистрация Запомнить меня
Войти через:  Facebook Google Twitter Vk Yandex Mail.ru

Kataklysm - Crippled Broken - таба, видео

Печатать
Просмотров: 153
-------------------------------------------------------------------------------
                             Crippled & Broken - Kataklysm
-------------------------------------------------------------------------------
Tabbed by: smithfor ak0


Crippeld and broken, as played on the In The Arms Of Devastation album.
 
Tuning:B

Intro

twice

B|-----------------------------------------------------------------|
G|-----------------------------------------------------------------|
D|-----------------------------------------------------------------|
A|-2-------------------------------2-------------------------------|Guitar 1
E|-0-2-3-----2-----5-----3---8-7-5-0-2-3-----2-----------2---6-5-3-|
B|---0-1-0-0-0-0-0-3-0-0-1-0-6-5-3---0-1-0-0-0-0-0-000-0-0-0-4-3-1-|
PM       . .   . .   . .   .             . .   . . ... .   .

Guitar 2 enters second time

B|-----------------------------------------------------------------|
G|-----------------------------------------------------------------|
D|-----------------------------------------------------------------|
A|-2-------------------------------2-------------------------------|Guitar 2
E|-0-2-3---------------------------0-2-3---------------------------|
B|---0-1-----------------------------0-1---------------------------|

END INTRO

Riff A

   Both guitars. Play 4 times.
B|-----------------------------------------------------------------|
G|-----------------------------------------------------------------|
D|-----------------------------------------------------------------|
A|-2-------------------------------2-------------------------------|
E|-0-2-3-----2-----5-----3---8-7-5-0-2-3-----2-----------2---6-5-3-|
B|---0-1-0-0-0-0-0-3-0-0-1-0-6-5-3---0-1-0-0-0-0-0-000-0-0-0-4-3-1-|
PM       . .   . .   . .   .             . .   . . ... .   .

Riff b1

     Played once
B|-------------------------------------------------|
G|-------------------------------------------------|
D|-------------------------------------------------|
A|---------3"--------------------3"---5-4-2--------|Guitar 1
E|-2"-5"-2"--2"-3"-2"-5"-2"-5"-2"--2"-3-2-0--------|
B|-------------------------------------------------|
PM                                    . .         


B|-------------------------------------------------|
G|-------------------------------------------------|
D|-------------------------------------------------|
A|------------------------------------5-4-2--------|guitar 2
E|------------------------------------3-2-0--------|
B|-------------------------------------------------|
PM                                    . .

B|-------------------------------------------------|
G|-------------------------------------------------|
D|-------------------------------------------------|
A|------3"-----------------------5-4-2-4-2---------|Guitar 1
E|-2"-5"-2"-2"-3"-2"-5"-2"-5"-2"-3-2-0-2-0-5-------|
B|-----------------------------------------3-------|
PM                               . .   . .

B|-------------------------------------------------|
G|-------------------------------------------------|
D|-------------------------------------------------|
A|-------------------------------5-4-2-4-2---------|guitar 2
E|-------------------------------3-2-0-2-0-5-------|
B|-----------------------------------------3-------|
PM                               . .   . . 


Riff B

    Both guitars. Played twice
B|-------------------------------------------------|
G|-------------------------------------------------|
D|-------------------------------------------------|
A|---------3"--------------------3"---5-4-2--------|
E|-2"-5"-2"--2"-3"-2"-5"-2"-5"-2"--2"-3-2-0--------|
B|-------------------------------------------------|
PM                                    . .         

B|-------------------------------------------------|
G|-------------------------------------------------|
D|-------------------------------------------------|
A|---------3"---------------------5-4-2-4-2--------|
E|-2"-5"-2"--2"-3"-2"-5"-2"-5"-2"-3-2-0-2-0-5------|
B|------------------------------------------3------|
PM                                . .   . .

Riff C
    Both Guitars. Played 4 times
B|----------------------------------------------------------|
G|----------------------------------------------------------|
D|----------------------------------------------------------|
A|----------------------------------------------------------|
E|---------------------------------8-----8-----8-----33-----|
B|-0000000000003322000055330000775566666-66666-66666-11-----|
  


Riff A

   Both guitars. Play 2 times.
B|-----------------------------------------------------------------|
G|-----------------------------------------------------------------|
D|-----------------------------------------------------------------|
A|-2-------------------------------2-------------------------------|
E|-0-2-3-----2-----5-----3---8-7-5-0-2-3-----2-----------2---6-5-3-|
B|---0-1-0-0-0-0-0-3-0-0-1-0-6-5-3---0-1-0-0-0-0-0-000-0-0-0-4-3-1-|
PM       . .   . .   . .   .             . .   . . ... .   .

riff D

B|------------------------------------------------------------------|
G|------------------------------------------------------------------|
D|------------------------------------------------------------------|
A|------------------------------------------------------------------|
E|------------------------------------------------------------------|
B|-0-0-0-0-0-0-3-2-0-0-5-3-0-0-7-5--3p2-0-0-3p5-0-0-7p5-0-0-7p8-----|
PM . . . . . . . . . . . . . . . .  p.h . . p.h . . p.h . . p.h

Riff e1
     Play twice
B|------------------------------------------------------------|
G|------------------------------------------------------------|
D|------------------------------------------------------------|
A|------------------------------------------------5-5-5-7-7-7-|Guitar 1
E|-8-8-8-8-8--------8-8---8---10--8-8-8-8-8-------3-3-3-5-5-5-|
B|-----------0-0-0------0---0-8-------------0-0-0-------------|

B|------------------------------------------------------------|
G|------------------------------------------------------------|
D|------------------------------------------------------------|
A|------------------------------------------------5-5-5-7-7-7-|Guitar 2
E|------------------------------------------------3-3-3-5-5-5-|
B|------------------------------------------------------------|

Play Four times
B|------------------------------------------------------------------|
G|------------------------------------------------------------------|
D|------------------------------------------------------------------|
A|------------------------------------------------------------------|
E|------------------------------------------------------------------|
B|-0-0-0-0-0-0-3-2-0-0-5-3-0-0-7-5--3p2-0-0-3p5-0-0-7p5-0-0-7p8-----|
PM . . . . . . . . . . . . . . . .  p.h . . p.h . . p.h . . p.h

Riff E

   Both guitars. Play twice
B|------------------------------------------------------------------------|
G|------------------------------------------------------------------------|
D|------------------------------------------------------------------------|
A|-10-10-10-10-10----------------------10-10-10-10-10---------------------|
E|-8--8--8--8--8--2-2-2--2-3---6-5-2-3-8--8--8--8--8--2-2-2--3-3-3--5-5-5-|
B|----------------0-0-0--0-1-0-4-3-0-1----------------0-0-0--1-1-1--3-3-3-|
PM                       .   .     . 

Riff b1

     Played once
B|-------------------------------------------------|
G|-------------------------------------------------|
D|-------------------------------------------------|
A|---------3"--------------------3"---5-4-2--------|Guitar 1
E|-2"-5"-2"--2"-3"-2"-5"-2"-5"-2"--2"-3-2-0--------|
B|-------------------------------------------------|
PM                                    . .         


B|-------------------------------------------------|
G|-------------------------------------------------|
D|-------------------------------------------------|
A|------------------------------------5-4-2--------|guitar 2
E|------------------------------------3-2-0--------|
B|-------------------------------------------------|
PM                                    . .

B|-------------------------------------------------|
G|-------------------------------------------------|
D|-------------------------------------------------|
A|------3"-----------------------5-4-2-4-2---------|Guitar 1
E|-2"-5"-2"-2"-3"-2"-5"-2"-5"-2"-3-2-0-2-0-5-------|
B|-----------------------------------------3-------|
PM                               . .   . .

B|-------------------------------------------------|
G|-------------------------------------------------|
D|-------------------------------------------------|
A|-------------------------------5-4-2-4-2---------|guitar 2
E|-------------------------------3-2-0-2-0-5-------|
B|-----------------------------------------3-------|
PM                               . .   . . 


Riff B

    Both guitars. Played twice
B|-------------------------------------------------|
G|-------------------------------------------------|
D|-------------------------------------------------|
A|---------3"--------------------3"---5-4-2--------|
E|-2"-5"-2"--2"-3"-2"-5"-2"-5"-2"--2"-3-2-0--------|
B|-------------------------------------------------|
PM                                    . .         

B|-------------------------------------------------|
G|-------------------------------------------------|
D|-------------------------------------------------|
A|---------3"---------------------5-4-2-4-2--------|
E|-2"-5"-2"--2"-3"-2"-5"-2"-5"-2"-3-2-0-2-0-5------|
B|------------------------------------------3------|
PM                                . .   . .

Riff C
    Both Guitars. Played 4 times
B|----------------------------------------------------------|
G|----------------------------------------------------------|
D|----------------------------------------------------------|
A|----------------------------------------------------------|
E|---------------------------------8-----8-----8-----33-----|
B|-0000000000003322000055330000775566666-66666-66666-11-----|
  

Riff A

   Both guitars. Play 4 times now.
B|-----------------------------------------------------------------|
G|-----------------------------------------------------------------|
D|-----------------------------------------------------------------|
A|-2-------------------------------2-------------------------------|
E|-0-2-3-----2-----5-----3---8-7-5-0-2-3-----2-----------2---6-5-3-|
B|---0-1-0-0-0-0-0-3-0-0-1-0-6-5-3---0-1-0-0-0-0-0-000-0-0-0-4-3-1-|
PM       . .   . .   . .   .             . .   . . ... .   .


   Both guitars end with:
B|-------------------------------------------------|
G|-------------------------------------------------|
D|-------------------------------------------------|
A|-2-----------------------------------------------|
E|-0-2-3-------------------------------------------|
B|---0-1-------------------------------------------|



| p.h. Pinch harmonic
| PM   Palm Mute
| "    tremolo pick
| /    slide up
| \    slide down
| h    hammer-on
| p    pull-off
| ~    vibrato
| +    harmonic
| x    Mute note
===============================================================================
Добавлено: 28.03.2012
Другие материалы по этой песне:
  • Аккорды и текст

Страница создана 28.03.2012
http://primanota.ru/kataklysm/crippled-broken-chords.htm
Привет, Гость.
Предлагаем пройти революционный курс по гитаре.
Подарок от PrimaNota.Ru, забирай!