PrimaNota.ru - самый крупный в мире бесплатный архив песенных текстов, аккордов, табулатур и нот


Kataklysm - 10 Seconds From The End - таба, видео

Регистрация Запомнить меня
Войти через:  Facebook Google Twitter Vk Yandex Mail.ru

Kataklysm - 10 Seconds From The End - таба, видео

Печатать
Просмотров: 89
--- KATAKLYSM ---
                          "10 Seconds From The End"
                     From album: "Serenity In Fire"
                     

                            TABULATURE LEGEND:
                   " - tremolo             h - hammer on           
                   ~ - vibrato             \ - slide down
                   p - pull off            / - slide down
                  tr - tremolo picking     ^ - pinch harmonics     
                   = - sustained note      b - bend string         
                p.m. - palm muting         t - tapping

TUNING: B [B, E, A, d, g, B]

[Intro]
|---------------------------------|---------------------------------|-
|---------------------------------|---------------------------------|-
|---------------------------------|---------------------------------|-
|---------------------------------|---------------------------------|-
|---------------------------------|---------------------------------|-
|-110-0-0-0-0-110-110-0-0-0-0-0-0-|-110-0-0-0-0-110-110-0-0-0-0-0-0-|-
| ... . . . . ... ... . . . . . . | ... . . . . ... ... . . . . . . |
|---------------------------------|---------------------------------|-
|---------------------------------|---------------------------------|-
|---------------------------------|---------------------------------|-
|---------------------------------|---------------------------------|-
|---------------------------------|---------------------------------|-
|---------------------------------|---------------------------------|-


-|---------------------------------|---------------------------------|
-|---------------------------------|---------------------------------|
-|---------------------------------|---------------------------------|
-|---------------------------------|---------------------------------|
-|---------------------------------|-----------------2-3-5-3-8-7-3-5-|
-|-110-0-0-0-0-110-110-0-0-0-0-0-0-|-110-0-0-0-0-110-0-1-3-1-6-5-1-3-|
 | ... . . . . ... ... . . . . . . | ... . . . . ...                 |
-|---------------------------------|---------------------------------|
-|---------------------------------|---------------------------------|
-|---------------------------------|---------------------------------|
-|---------------------------------|---------------------------------|
-|---------------------------------|-----------------2-3-5-3-8-7-3-5-|
-|-110-0-0-0-0-110-110-0-0-0-0-0-0-|-110-0-0-0-0-110-0-1-3-1-6-5-1-3-|
   ... . . . . ... ... . . . . . .   ... . . . . ...

[Riff 1]
|----------------------------[x3]-|-----------------------------|
|---------------------------------|-----------------------------|
|---------------------------------|-----------------------------|
|---------------------------------|-----------------------------|
|---------------------------------|-----------------2--2--2--2--|
|-110-0-0-0-0-110-110-0-0-0-0-0-0-|-110-0-0-0-0-110-0--0--0--0--|
  ... . . . . ... ... . . . . . .   ... . . . . ... .  .  .  .

[Riff 2 (x2)]
||----------------------------------|----------------------------------||
||o---------------------------------|---------------------------------o||
||----------------------------------|----------------------------------||
||----------------------------------|-------------------------4\3------||
||o-2-3-2-3-5\3-2-3-6\5-2-3-6\5-3/5-|-2-3-2-3-5\3-2-3-6\5-2-3-2\1-3/5-o||
||--0-1-0-1-3\1-0-1-4\3-0-1-4\3-1/3-|-0-1-0-1-3\1-0-1-4\3-0-1-----1/3--||
    . . . .     . .     . .           . . . .     . .     . .

[Outro A]
||-------------------------[x2]-||
||o----------------------------o||
||------------------------------||
||------------------------------||
||o----------------------------o||
||--000000000--0-----0000000----||
    .........  .     .......

[Outro B (x3)]
||-----------------------------------------------|-
||o--//...gtr. 1 plays OUTRO A \\----------------|-
||-----------------------------------------------|-
||-----------------------------------------------|-
||o----------------------------------------------|-
||-----------------------------------------------|-
|                                                |
||--[gtr. 2]-------------------------------------|-
||o----------------------------------------------|-
||-----------------------------------------------|-
||------------------------------------10-9-------|-
||o-7h10p7-----7h10p7-----7h10p7-----------12-10-|-
||---------0-0--------0-0---------0-0------------|-
           . .        . .         . . .  . .  .

|-----------------------------------------||
|----------------------------------------o||
|-----------------------------------------||
|-----------------------------------------||
|----------------------------------------o||
|-----------------------------------------||
|                                          |
|-----------------------------------------||
|----------------------------------------o||
|-----------------------------------------||
|----------------------------------7--10--||
|-7h10p7-----7h10p7-----7h10p7-----5---8-o||
|--------0-0--------0-0--------0-0--------||
         . .        . .        . .

[Outro C]
|---------------------------------------------|------------------|
|---------------------------------------------|------------------|
|---------------------------------------------|------------------|
|---------------------------------------------|-9--7--10-9-------|
|---------------------------------------------|-7--5-------12-10-|
|-000000000000-0------------------------------|------------------|
| ............ .                              | .  .  .  . .  .  |
|---------------------------------------------|------------------|
|---------------------------------------------|------------------|
|---------------------------------------------|------------------|
|----------------------------------10-9-------|-9--7--10-9-------|
|-7h10p7-----7h10p7-----7h10p7----------12-10-|-7--5-------12-10-|
|--------0-0--------0-0--------0-0------------|------------------|
         . .        . .        . . .  . .  .    .  .  .  . .  .

[Riff 3 (x4)]
||----------------------------------------------|-
||o---------------------------------------------|-
||----------------------------------------------|-
||-----------------------------------10-9-------|-
||o-7h10p7-----7h10p7-----7h10p7----------12-10-|-
||---------0-0--------0-0--------0-0------------|-
           . .        . .        . . .  . .  .

-|-----------------------------------------||
-|----------------------------------------o||
-|-----------------------------------------||
-|----------------------------------7-10---||
-|-7h10p7-----7h10p7-----7h10p7-----5--8--o||
-|--------0-0--------0-0--------0-0--------||
          . .        . .        . .

[Riff 4 (x2)]
||----------------------------------------|-
||o---------------------------------------|-
||----------------------------------------|-
||----------------------------------------|-
||o-6h7p6-----6h7p6-----6h7p6-----7-6-----|-
||--------0-0-------0-0-------0-0-----8-7-|-
          . .       . .       . . . . . .

-|-------------------------------------------|-
-|-------------------------------------------|-
-|-------------------------------------------|-
-|-2h3p2-----2h3p2-----2h3p2-----2h3p2-4h5p3-|-
-|-------1-1-------1-1-------1-1-------------|-
-|-------------------------------------------|-
         . .       . .       . .

-|---------------------------------------|---------------------||
-|---------------------------------------|--------------------o||
-|---------------------------------------|---------------------||
-|---------------------------------------|---------------------||
-|-6h7p6-----6h7p6-----6h7p6-----7-6-----|-5-5-8-8-7-7-10-10--o||
-|-------0-0-------0-0-------0-0-----8-7-|-3-3-6-6-5-5--8--8---||
         . .       . .       . . . . . .

[RIFF 3 (x4)] [RIFF 4 (x2)]

[Outro D]
|---------------------------------------------|
|---------------------------------------------|
|---------------------------------------------|
|---------------------------------------------|
|-2=========================================--|
|-0=========================================--|

[RIFF 1 (x2)] [RIFF 2 (x3)]

[Ending]
|---------------------------------|------------------------------|------*|
|---------------------------------|------------------------------|------*|
|---------------------------------|------------------------------|------*|
|---------------------------------|----------------------3-4-3---|------*|
|-2-3-2-3-5\3-2-3-6\5-2-3-6\5-3/5-|-2-3-2-3-5\3-2-3-6----1-2-1-5-|--2---*|
|-0-1-0-1-3\1-0-1-4\3-0-1-4\3-1/3-|-0-1-0-1-3\1-0-1-4----------3-|--0---*|
  . . . .     . .     . .           . . . .     . . .    . . . .    .

END OF SONG
Добавлено: 27.08.2013
Другие материалы по этой песне:

Страница создана 06.06.2012
http://primanota.ru/kataklysm/10-seconds-from-the-end-chords.htm
Привет, Гость.
Предлагаем пройти революционный курс по гитаре.
Подарок от PrimaNota.Ru, забирай!