PrimaNota.ru - самый крупный в мире бесплатный архив песенных текстов, аккордов, табулатур и нот


Kat Dahlia - Just Another Dude - таба, видео

Регистрация Запомнить меня
Войти через:  Facebook Google Twitter Vk Yandex Mail.ru

Kat Dahlia - Just Another Dude - таба, видео

Печатать
Просмотров: 190
-------------------------------------------------------------------------------
                             JUST ANOTHER DUDE - KAT DAHLIA
-------------------------------------------------------------------------------
Tabbed by: X2


Tuning: Standard

Em Am G B7      Strum Pattern D-UDUD-UDUD-UDUD-UDU (twice on each chord during chorus)


First time making a tab...I think it sounds close.

E Minor

e|-------0-----------0-----------0--------------0-------------------------------------|
B|-------0-----------0-----------0--------------0-------------------------------------|
G|-------0-------0---0-----------0----------0---0-------------------------------------|
D|------------------------------------------------------------------------------------|
A|----2--------2-------------2----------2---------------------------------------------|
E|--0--------0------------0----------0------------------------------------------------|

What a strange thought...

A Minor

e|-------0-----------0-----------0--------------0--------------------------------|
B|-------1-----------1-----------1--------------1--------------------------------|
G|-------2-------2---2-----------2----------2---2--------------------------------|
D|----2--------2-------------2----------2----------------------------------------|
A|-0---------0------------0----------0-------------------------------------------|
E|-------------------------------------------------------------------------------|

I'm running around town, I'm trying to find my heart...

G Major

e|-------3-----------3-----------3--------------3------------------------------------|
B|-------0-----------0-----------0--------------0------------------------------------|
G|-------0-------0---0-----------0---------0----0------------------------------------|
D|-----------------------------------------------------------------------------------|
A|----2--------2-------------2----------2--------------------------------------------|
E|-3---------3------------3----------3-----------------------------------------------|

But it's been shot....

B7

e|-------3-----------3-----------3--------------3------------------------------------|
B|-------0-----------0-----------0--------------0------------------------------------|
G|-------3-------2---3-----------3---------2----3------------------------------------|
D|----1--------1-------------1----------1--------------------------------------------|
A|-2---------2------------2----------2-----------------------------------------------|
E|-----------------------------------------------------------------------------------|

By the one who holds the gun....


Em
What a strange thought
Am
I'm running around town
                                 G
I'm trying to find my heart but it's been shot
B7
By the one who holds the gun
Em            Am
Oo he got me, he shot me good
G             B7
Oo he got me, he shot me good


Em                         Am
You you treat me like a fool
                     G
You're making me feel used, by you
                    B7
Oh what do I do to break loose
                 Em
Oo I'm so confused
                 Am
I guess I pay my dues
                    G
Why do I like this abuse, by you
                    B7
Oh what do I do to break loose

You're just another dude


I used stand so tall
Now I cant stand at all
Baby made me fall
He shot me on the wall
Oo he got me, he shot me good
Oo he got me, he shot me good
He had the gun he had the pen I was the mark

Oo baby you, you you treat me like a fool
You're making me feel used, by you
Oh what do I do to break loose
Oo I'm so confused
I guess I pay my dues
Why do I like this abuse, by you
Oh what do I do to break loose
You're just another dude

Oo baby you got me running running running running all over town
I got nothing nothing nothing nothing nothing to show
But these fools are proof
It's all cause of you
Oo baby you got me running running running running all over town
I got nothing nothing nothing nothing nothing to show
But these fools are proof
It's all cause of you
You're just another dude


************************************

| /   slide up
| \   slide down
| h   hammer-on
| p   pull-off
| ~   vibrato
| +   harmonic
| x   Mute note
| b   Bend
| pb  Pre-bend
| br  Bend release
| pbr Pre-bend release
| brb Bend release bend

************************************
Добавлено: 22.12.2015
Другие материалы по этой песне:
  • Аккорды и текст

Страница создана 22.12.2015
http://primanota.ru/kat-dahlia/just-another-dude-chords.htm
Привет, Гость.
Предлагаем пройти революционный курс по гитаре.
Подарок от PrimaNota.Ru, забирай!