PrimaNota.ru - самый крупный в мире бесплатный архив песенных текстов, аккордов, табулатур и нот


Kashmir - Victoria - бас-таба, видео

Регистрация Запомнить меня
Войти через:  Facebook Google Twitter Vk Yandex Mail.ru

Kashmir - Victoria - бас-таба, видео

Печатать
Просмотров: 130
Drop D Tuning		

Intro: 	Use a synthpedal/envelope filter to create that weird sound
	
G-----------------------------------------|
D----4-------------4----------------------|
A------2---3---------2-----(3)-(1)--------|
D-0------5---3---0------5-----------------|


Verse: 	Pretty distorted bass sound throughout song

I know that...
G----------------------------------------------------------------|
D----------------------------------------------------------------|
A----------------------------------------------------------------|
D-0-0--0-5-5--5-0-0--0-7-7--7-0-0--0-8-8----8--5--3--2--1--------|

                                                  
Your 60 I'm 20..
G--------------------------------------------
D--0-----------------------------------------
A--------------------------------------------
D----0--0-5-5--5-0-0--0-7-7--7-8-8--8-10-10--
    
G-------------------------
D-------------------------
A-------------------------
E-10--12-12-10-10-9-8-7---


Chorus:
	
Take your time...
G-----------------------------------------------------------------|
D-----------------------------------------------------------------|
A-----------------------------------------------------------------|
D--0-0--xx-4-4--xx-7-7--xx-8-8----12--10--8---7--12--10--7---5-x5-|

G----------------------------------------------------------------|
D----------------------------------------------------------------|
A----------------------------------------------------------------|
D--0-0--xx-4-4--xx-9-9--xx-8-8--xx-\0--4--9--5---0-0---0--5-5----|


Play verse

2nd chorus:

G-----------------------------------------------------------------|
D-----------------------------------------------------------------|
A-----------------------------------------------------------------|
D--0-0--xx-4-4--xx-7-7--xx-8-8----12--10--8---7--12--10--7---5-x5-|

G----------------------------------------------------------------|
D----------------------------------------------------------------|
A----------------------------------------------------------------|
D--0-0--xx-4-4--xx-9-9--xx-8-8--xx-\0--4--9--5---\0--4--9---5-5--|


Bridge:

G----------------------------------------------------------------|
D----------------------------------------------------------------|
A-------------------------------------------5--------------------|
D--5-5-5-5-5--5-5--5-5-5-5-5-5-5-5--5-5-5-----8-7----------------|

Intro x 2

I tried not to breath...
G----------------------------------------------------------------|
D----------------------------------------------------------------|
A----------------------------------------------------------------|
D---12--11--9--7---5--3---55-5-----------------------------------|
  
G----------------------------------------------------------------|
D----4-----------------4-----------------------------------------|
A-------2-----3-----------2------3---2---1-----------------------|
D-0--------5-----3--0---------5----------------------------------|	


Solo:

Play Verse

Then Chorus

And then: with synth engaged
G----------------------------------------------------------------|
D----------------------------------------------------------------|
A----------------------------------------------------------------|
D-0--2-3-5-5-3--0--2-4-5----0--2-3-5-5-3--0--2-4-5-0-------------|

G----------------------------------------------------------------|
D----------------------------------------------------------------|
A------------------------------------------------------------2--1|
D---12--11--9--7---5--3---55-5----0--2-3-5-5-3--0--2-4-5-0-------|

		
Outro:
	
Intro x 2 (with slight rhythmic variation (easy to hear))
Добавлено: 17.04.2012
Другие материалы по этой песне:

Страница создана 17.04.2012
http://primanota.ru/kashmir/victoria-chords.htm
Привет, Гость.
Предлагаем пройти революционный курс по гитаре.
Подарок от PrimaNota.Ru, забирай!