PrimaNota.ru - самый крупный в мире бесплатный архив песенных текстов, аккордов, табулатур и нот


Kashmir - The Indian That Dwells Inside This Chest - таба, видео

Регистрация Запомнить меня
Войти через:  Facebook Google Twitter Vk Yandex Mail.ru

Kashmir - The Indian That Dwells Inside This Chest - таба, видео

Печатать
Просмотров: 113
    _____________________________________________
   / Kashmir                                    /
  / The Indian (That Dwells Inside This Chest) /
 / Trespassers                                /
/____________________________________________/

******************************************************************************
 Also, see my guitar pro tab, which includes more elements and details:
 www.ultimate-guitar.com/tabs/k/kashmir/the_indian_that_dwells_inside_this_chest_guitar_pro.htm
******************************************************************************

The only guitar part in this song are the fast arpeggios in the verse.
These arpeggios are played by both a clean electric guitar and an acoustic
guitar, in order to create that massive sound.
The hard thing here it the picking pattern - particularly those two up strokes
in a row. (And singing on top of that?!) Remember always to start out
practicing fast things slowly and then gradually build up the speed.

 3/4
  1   +   2   +   3   +
|-------------------------|
|-------------------------|
|-----------------x-------|
|-----------x-------------|
|-------x-----x---------x-|     ^ = down stroke
|-x---x---x-----x-----x---|     v = up stroke
  ^   ^ v ^ v v ^ v   ^ v



 Intro:
(All the arpeggios are played 2 or 4 times, so I just
 notated that instead of writing the whole bar again.)

 3/4
  Cm(add2)
  1   +   2   +   3   +
|-------------------------| 4x
|-------------------------|
|-----------------0-------|
|-----------0-------------|
|-------6-----6---------6-|
|-8---8---8-----8-----8---|



 Verse:

  Cm(add2)
|-------------------------| 2x
|-------------------------|
|-----------------0-------|
|-----------0-------------|
|-------6-----6---------6-|
|-8---8---8-----8-----8---|

  G(add-6)                        Absus2(add+4)
|-------------------------| 2x  |-------------------------| 2x
|-------------------------|     |-------------------------|
|-----------------0-------|     |-----------------3-------|
|-----------0-------------|     |-----------0-------------|
|-------6-----6---------6-|     |-------6-----6---------6-|
|-3---3---3-----3-----3---|     |-4---4---4-----4-----4---|

  Fm6
|-------------------------| 4x
|-------------------------|
|-----------------1-------|
|-------1---0-------------|
|---------3---3---------3-|
|-1---1---------1-----1---|

  Ab(add+4)
|-------------------------| 4x
|-------------------------|
|-----------------5-------|
|-----------0-------------|
|-------6-----6---------6-|
|-4---4---4-----4-----4---|

  Gm                              G
|-------------------------| 2x  |-------------------------| 2x
|-------------------------|     |-------------------------|
|-----------------3-------|     |-----------------4-------|
|-----------0-------------|     |-------0---0---0---------|
|-------1-----1---------1-|     |---------2---2---------2-|
|-3---3---3-----3-----3---|     |-3---3---------------3---|




 Verse


 Bridge:

  Cm(add2)                        Bb
|-------------------------| 2x  |-------------------------| 2x
|-------------------------|     |-------------------------|
|-----------------0-------|     |-----------------7-------|
|-----------0-------------|     |-----------0-------------|
|-------6-----6---------6-|     |-------5-----5---------5-|
|-8---8---8-----8-----8---|     |-6---6---6-----6-----6---|

  Ab(add+4)                       Gm
|-------------------------| 2x  |-------------------------| 2x
|-------------------------|     |-------------------------|
|-----------------5-------|     |-----------------3-------|
|-----------0-------------|     |-----------0-------------|
|-------6-----6---------6-|     |-------1-----1---------3-|
|-4---4---4-----4-----4---|     |-3---3---3-----3-----1---|

  Fm6                             Bb7/F
|-------------------------| 2x  |-------------------------| 2x
|-------------------------|     |-------------------------|
|-----------------1-------|     |-----------------1-------|
|-----------0-------------|     |-----------0-------------|
|-------3-----3---------3-|     |-------1-----1---------1-|
|-1---1---1-----1-----1---|     |-1---1---1-----1-----1---|




 Chorus:
There's no guitar playing in the Chorus, but here's the chords anyway.
(There IS a guitar playing some typical Kashmir-noise here though,
 but I have no idea how it's made.)

||: Eb | Eb | Eb | Ab |

  | Cm | Cm | G/B | G/B :||

| Bb | Bb | Ab | G/D |

| Cm | Cm | Cm | Cm |



 Symphonic Verse (see my guitar pro tab)


 Verse


 Chorus:

||: Eb | Eb | Eb | Ab |

  | Cm | Cm | G/B | G/B :||

| Bb | Bb | Ab/C | G/D |

| Cm | Cm | Cm |



 Symphonic Outro (uuuh, not today...)



 LYRICS
**********
stay a little while
there's an arrow
tucked into my spine
walk with me a while
like an indian trailing
my tail feathers
through dry rivers
and plains


be my time friend
who covers back and front
a shelter from the sun
a soothing hand in the twilight
my ignition
my permission to let go let go
and just go

i'm afraid to admit all the things i regret
now it's said
but the night came too soon
and the day is running late
it's hard to change
the indian that dwells inside this chest

with furrows in your brow
you're still a rainbow
crawling up the sky
with droplets in your eye
you're still sure of your pathways
so i'll sway in your wash

too afraid to admit all the things i regret
now it's said
though the picture that passes our window
has changed 
it's hard to change
the indian that dwells inside this chest


+--------------------------------------------------------------------------+
Jon Sebastian Frederiksen - 30th /March /10
Just mail me at Maitinin@gmail.com with questions, comments and corrections!
Добавлено: 25.07.2012
Другие материалы по этой песне:

Страница создана 25.04.2012
http://primanota.ru/kashmir/the-indian-that-dwells-inside-this-chest-chords.htm
Привет, Гость.
Предлагаем пройти революционный курс по гитаре.
Подарок от PrimaNota.Ru, забирай!