PrimaNota.ru - самый крупный в мире бесплатный архив песенных текстов, аккордов, табулатур и нот


Kashmir - Supergirl - таба, бас-таба, видео

Регистрация Запомнить меня
Войти через:  Facebook Google Twitter Vk Yandex Mail.ru

Kashmir - Supergirl - таба, бас-таба, видео

Печатать
Просмотров: 190
INTRO

--3----3----3----3--------|
--5----5----5----5--------|
--5----4----5----4--------|
--------------------------|
--------------------------|
--------------------------|

VERS

--3----3----3----3----1----1----3----3---------|
--5----5----5----5----3----3----5----5---------|
--5----4----5----4----3/---2----5----4/--------|
-----------------------------------------------|
-----------------------------------------------|
-----------------------------------------------|
Supergirl, maybe I can't kill you off...after all.


--3----3----3----3---5-3-----1----1----3----3---/----|
--5----5----5----5-----------3----3----5----5---/----|
--5----4/---5----4-----------3----2----5----4---/----|
-----------------------------------------------------|
-----------------------------------------------------|
-----------------------------------------------------|
Supergirl, I don't kill you off...after all

--11----11----10----11---10----11----11----10-----------------|
--13----13----11----11---11----13----13----11-----------------|
--13----12----10----12---10----13----12----10-----------------|
---------------------------------------------------------- ---|
---------------------------------------------------------- ---|
---------------------------------------------------------- ---|
Open hands, catch the light your after....

--11----11----10----13------------------------------------ ----|
--13----11----11----13------9----8----6----4---4--3--4---- ----|
--13----12----10----14------8----8----5----3-------------- ----|
-----------------------------6----5----3----1------------- ----|
---------------------------------------------------------- ----|
---------------------------------------------------------- ----|
Kill the man. In his house of infidels


Omkvæd
--0----0----3----3--0--1----1----0----3---------|
--1----0----1----0-----3----3----1----0---------|
--0----0----0----0-----3----2----0----0---------|
--2----2----2----2-----3----0----2----2---------|
--3----2----3----2-----1---------3----2---------|
-------0---------0---------------------0--------|
Supergirl, so unflacking in your glow after all


--3----3----3----3--0---1----1----0----7-------------------------------|
--1----0----1----0------3----3----1----8-------------------------------|
--0----0----0----0------3----2----0----0-------------------------------|
--2----2----2----2------3----0----2------------------------------------|
--3----2----3----2------1---------3------------------------------------|
-------0---------0---------------------------------------- ------------|
Supergirl, your the strongest girl I know..after all.

--8----8----10----11---10----8----8----10--11--10---------|
--9----8----11----11---11----9----8----11--11--11---------|
--8----8----10----12---10----8----8----10--10--10---------|
----------------------------------------------------------|
----------------------------------------------------------|
----------------------------------------------------------|
Open hands, catch the light your after....

--8----6----6----8--------------------------------|
--9----8----6----9-------9----8----6----4---------|
--8----8----7---10-------8----8----5----3---------|
--------------------------6----5----3----1--------|
--------------------------------------------------|
--------------------------------------------------|
Kill the man in his house of infidels

(Dette er Kaspers guitar der spiller dette over Mads's
bas solo og næste vers)           ; ;         & n bsp; ;          ;  ;        &n bsp;  ;
--8--8---10----8----8---10--12--13--15--------------|
--8--10--10---10----8---10--12--13--15--------------|
--9--9---10----9----9-------------------------------|
----------------------------------------------------|
----------------------------------------------------|
----------------------------------------------------|

There's ten thousand stars above tonight...
(Har prøvet at lave Henkes keyboard om til guitar. Det skal
spilles over det samme foregående vers)

--8--10----7--8---7----5---0---3----1---------------------|
--8---8----8--8---8----5---5---3----1---------------------|
--9---9----7--7---7----5---5---5----2---------------------|
----------------------------------------------------------|
----------------------------------------------------------|
----------------------------------------------------------|


--1-----5-----3-----1-----5-----3------------------------- ------------|
--1-----5-----5-----1-----5-----3------------------------- ------------|
--2-----5-----4-----2-----5-----4------------------------- ------------|
--3-----7-----5-----3-----7-----5------------------------- ------------|
--3-----7-----3-----3-----7-----5------------------------- ------------|
--1-----5-----3-----1-----5-----3------------------------- ------------|
Just don't regret a thing...Cause I don't regret a thing


--8----8----10----11---10----8----8----10--11--10------------|
--9----8----11----11---11----9----8----11--11--11------------|
--8----8----10----12---10----8----8----10--10--10------------|
---------------------------------------------------------- --|
---------------------------------------------------------- --|
---------------------------------------------------------- --|
Open hands, catch the light your after....

--8----6----6----8---------------------------------------- ---------|
--9----8----6----9-------9----8----6----4/----9---8---6--- 4--1-----|
--8----8----7---10-------8----8----5----3/----8---8---5--- 3--0-----|
--------------------------6----5----3----1/----6---5---3-- -1--2----|
---------------------------------------------------------- -----3---|
---------------------------------------------------------- ---------|

Jeg har lavet lidt ændringer hist og her
Добавлено: 14.04.2012
Другие материалы по этой песне:
  • Аккорды и текст

Страница создана 14.04.2012
http://primanota.ru/kashmir/supergirl-chords.htm
Привет, Гость.
Предлагаем пройти революционный курс по гитаре.
Подарок от PrimaNota.Ru, забирай!