PrimaNota.ru - самый крупный в мире бесплатный архив песенных текстов, аккордов, табулатур и нот


Kashmir - Stand - таба, видео

Регистрация Запомнить меня
Войти через:  Facebook Google Twitter Vk Yandex Mail.ru

Kashmir - Stand - таба, видео

Печатать
Просмотров: 136
1. Verse:
      
e-------------------------------------8---8-----------------------|
H-----8--8--8--8----10--10--10--10---10--10-----------------------|
G-----9--9--9--9-----9---9---9---9---11--11-----------------------|
D-----9--9--9--9----10--10--10--10--------------------------------|
A-----------------------------------------------------------------|
E-----------------------------------------------------------------|
To stand..

e----7--7---7--7--7--7--5--5--7--7--------------------------------|
H----7--7---8--8--8--8--5--5--7--7--------------------------------|
G----8--8---9--8--7--6--5--5--8--8--------------------------------|
D-----------------------------------------------------------------|
A-----------------------------------------------------------------|
E-----------------------------------------------------------------|

2. Verse containes the same chords BUT the voicing is different.


Omkvæde med dist:	

	e--------------------------------------0-------------0-------------|
	H-----------------------1--------------0-------------0-------------|
	G-2---5----5---5---2----2--------------0-------------0-------------|
	D-2---5----5---5---2----1------------------------------------------|
	A-0---2----3---2---0----2------------------------------------------|
	E---------------------------0-0-0--0-------0-0-0--0----------------|
          We will ne-ver

	
	e----------------------------------------------------------------|
	H----------------1-----------------------------------------------|
	G--2--5--5--5-2--2------4------4-------4------4---9----8---------|
	D--2--5--5--5-2--1------5------5-------5------5---7----9---------|
	A--0--2--3--2-0--2------7--6-6-6---5-5-5--4-4-4---9----9---------|
	D-------------------0-0---------------------------8----7---------|


Solo:
Med dist. wah og lidt delay
	
	e----------------------------------------------------------------|
	H----------------------10--10-----------10------10--12^14--10----|
	G----12--12-11-9-11-12---------12-11-12------11------------------|
	D--9-------------------------------------------------------------|
	A----------------------------------------------------------------|
	D----------------------------------------------------------------|

	
	e----------------------------------------------------------------|
	H-----------10-----------12--------------------12----------------|
	G-12-11-9-------12-11-9-----12-12---11-9--11---------------------|
	D----------------------------------------------------------------|
	A----------------------------------------------------------------|
	D----------------------------------------------------------------|

Добавлено: 30.07.2012
Другие материалы по этой песне:
  • Аккорды и текст

Страница создана 30.07.2012
http://primanota.ru/kashmir/stand-chords.htm
Привет, Гость.
Предлагаем пройти революционный курс по гитаре.
Подарок от PrimaNota.Ru, забирай!