PrimaNota.ru - самый крупный в мире бесплатный архив песенных текстов, аккордов, табулатур и нот


Kashmir - Pursuit Of Misery - таба, видео

Регистрация Запомнить меня
Войти через:  Facebook Google Twitter Vk Yandex Mail.ru

Kashmir - Pursuit Of Misery - таба, видео

Печатать
Просмотров: 138
-------------------------------------------------------------------------------
                          Pursuit of misery - Kashmir
-------------------------------------------------------------------------------
Tabbed by: myskimasa

Chord instructions below. There are some different nuances between album version
and live. I tried to compromise. Corrections are welcome.

Tuning: E standard

VERSE 1
  Gm                               D/F#           Asus4
e|------------------------------------------------------------------|
B|------------------------------------------------------------------|
G|------------------------------------------------------------------|
D|---------0-------------0-----------------0--------------0---------|
A|-----1-------1-----1-------1---------0-------0------3-------3-----|
E|-3-----3-------3-----3---------3-2-----2-------/5-----5---------5-|

  Gm                               D/F#          F
e|------------------------------------------------------------------|
B|------------------------------------------------------------------|
G|-----------------------0------------------------------------------|
D|---------0---------0-------0-------------0-------------0----------|
A|-----1-------1-------1---------1-----0-------0-----3-------3------|
E|-3-----3-------3-----------------2-----2-------1-----1----------1-|

  Cm                                Eb
e|------------------------------------------------------------------|
B|------------------------------------------------------------------|
G|-----------------------0--------------------------------3---------|
D|---------1---------1-------1--------------5---------5-------5-----|
A|-----3-------3-------3----------------6-------6-------6---------6-|
E|-3-----3-------3---------------3/-6-----6-------6-----------------|

  Gsus2                Gm                        F
e|-----------------------------------------------------------------|
B|-----------------------------------------------------------------|
G|---------2---------2---3-----------------3-------------2---------|
D|-----5-------5-------5-----5---------5-------5-----3-------3-----|
A|-5-----5-------5---------------5-5-----5-------3-----3---------3-|
E|-----------------------------------------------------------------|

  Gm                               D/F#          Asus4
e|------------------------------------------------------------------|
B|------------------------------------------------------------------|
G|------------------------------------------------------------------|
D|---------0-------------0-----------------0--------------0---------|
A|-----1-------1-----1-------1---------0-------0------3-------3-----|
E|-3-----3-------3-----3---------3-2-----2-------/5-----5---------5-|

  Gm                               D/F#          F
e|------------------------------------------------------------------|
B|------------------------------------------------------------------|
G|-----------------------0------------------------------------------|
D|---------0---------0-------0-------------0-------------0----------|
A|-----1-------1-------1---------1-----0-------0-----3-------3------|
E|-3-----3-------3-----------------2-----2-------1-----1----------1-|

  Bb                                Cm            Bb
e|------------------------------------------------------------------|
B|------------------------------------------------------------------|
G|-----------------------3------------------------------------------|
D|---------3---------3-------3--------------5-------------3---------|
A|-----5-------5-------5----------------6-------6-----5-------5-----|
E|-6-----6-------6---------------6/-8-----8-------6-----6---------6-|

  D7
e|-----------------------------------------------------------------|
B|-----------------------------------------------------------------|
G|-----------------------5-------------------------------5---------|
D|---------4---------4-------4-------------4---------4-------4-----|
A|-----5-------5-------5---------5-----5-------5-------5---------5-|
E|-5-----5-------5-----------------5-----5-------5-----------------|


CHORUS
  Eb                            Gm                F
e|--------------------------------------------------------------------|
B|---------8-----------8-------------------11----------------10-------|
G|-----8-------8-----------8----------12--------12------10--------10--|
D|-8-------------8---8---------8-12----------------10-----------------|
A|--------------------------------------------------------------------|
E|--------------------------------------------------------------------|

  Eb                             Bb            F
e|---------------------------------------------------------------|
B|---------8-----------8-----------------6---------------10------|
G|-----8-------8-----------8---------7-------7------10--------10-|
D|-8-------------8---8---------8-8-------------10----------------|
A|---------------------------------------------------------------|
E|---------------------------------------------------------------|

  Eb                             Gm                Dm7
e|-------------------------------------------------------------------|
B|---------8-----------8-------------------11------------------------|
G|-----8-------8-----------8----------12--------12-----------10------|
D|-8-------------8---8---------8-12---------------------10--------10-|
A|-------------------------------------------------12----------------|
E|-------------------------------------------------------------------|

  C                    Csus4 C          C                   Csus4 C
e|---------------------------------------------------------------------------|
B|---------------------------------------------------------------------------|
G|-----------9-----------10-9---------------------9-----------10-9-----------|
D|------10-------10-------------10-----------10-------10-------------10------|
A|-10---------------10---------------10-10---------------10---------------10-|
E|---------------------------------------------------------------------------|


INTERLUDE Strum these.
   Gm   D/F#  Asus4  Gm   D/F#    F    Cm    Eb    Gsus2  Gm    F
e|-----|-----|-----|-----|-----|-----|-----|------|-----|-----|----|
B|-----|-----|-----|-----|-----|-----|-----|------|-10--|-11--|-10-|
G|--3--|--2--|--5--|--3--|--2--|--2--|--8--|--12--|--x--|--x--|--x-|
D|--x--|--x--|--x--|--x--|--x--|--x--|--x--|---x--|--x--|--x--|--x-|
A|--x--|--x--|--x--|--x--|--x--|--x--|--x--|---x--|-10--|-10--|--8-|
E|--3--|--2--|--5--|--3--|--2--|--1--|--8--|--11--|-----|-----|----|


VERSE 2
  Gm                              D/F#           Asus4
e|------------------------------------------------------------------|
B|------------------------------------------------------------------|
G|------------------------------------------------------------------|
D|---------0-------------0-----------------0--------------0---------|
A|-----1-------1-----1-------1---------0-------0------3-------3-----|
E|-3-----3-------3-----3---------3-2-----2-------/5-----5---------5-|

  Gm                               D/F#          F
e|-----------------------------------------------------------------|
B|-----------------------------------------------------------------|
G|-----------------------0-----------------------------------------|
D|---------0---------0-------0-------------0-------------0---------|
A|-----1-------1-------1---------1-----0-------0-----3-------3-----|
E|-3-----3-------3-----------------2-----2-------1-----1---------1-|

  Cm                               Eb
e|-----------------------------------------------------------------|
B|-----------------------------------------------------------------|
G|-----------------------0-------------------------------3---------|
D|---------1---------1-------1-------------5---------5-------5-----|
A|-----3-------3-------3---------3-----6-------6-------6---------6-|
E|-3-----3-------3-----------------6-----6-------6-----------------|

  Bb                                             D
e|-----------------------------------------------------------------|
B|-----------------------------------------------------------------|
G|-----------------------3-----------------------------------------|
D|---------3---------3-------3-------------3-------------4---------|
A|-----5-------5-------5---------5-----5-------5-----5-------5-----|
E|-6-----6-------6-----------------6-----6-------5-----5---------5-|

  Gm                               D/F#          Asus4
e|------------------------------------------------------------------|
B|------------------------------------------------------------------|
G|------------------------------------------------------------------|
D|---------0-------------0-----------------0--------------0---------|
A|-----1-------1-----1-------1---------0-------0------3-------3-----|
E|-3-----3-------3-----3---------3-2-----2-------/5-----5---------5-|

  Gm                              D/F#           Asus4
e|------------------------------------------------------------------|
B|------------------------------------------------------------------|
G|-----------------------0------------------------------------------|
D|---------0---------0-------0-------------0-------------0----------|
A|-----1-------1-------1---------1-----0-------0-----3-------3------|
E|-3-----3-------3-----------------2-----2-------/5-----5---------5-|

  Bb                              Cm              Bb
e|------------------------------------------------------------------|
B|------------------------------------------------------------------|
G|-----------------------3------------------------------------------|
D|---------3---------3-------3--------------5-------------3---------|
A|-----5-------5-------5----------------6-------6-----5-------5-----|
E|-6-----6-------6---------------6/-8-----8-------6-----6---------6-|

  D7
e|-----------------------------------------------------------------|
B|-----------------------------------------------------------------|
G|-----------------------5-------------------------------5---------|
D|---------4---------4-------4-------------4---------4-------4-----|
A|-----5-------5-------5---------5-----5-------5-------5---------5-|
E|-5-----5-------5-----------------5-----5-------5-----------------|


CHORUS x 2


OUTRO Kasper strums these live.
   Eb    Gm     F     E          Eb     D5    C5    C5 
e|-----|-----|-----|-----|     |-----|-----|-----|-----|
B|--8--|-11--|-10--|--8--|     |--8--|--x--|--x--|--x--|
G|--x--|--x--|--x--|--x--| x 5 |--x--|--x--|--x--|--x--|
D|--x--|--x--|--x--|--x--|     |--x--|--x--|--x--|--5--|
A|--6--|-10--|--8--|--7--|     |--6--|--5--|--3--|--3--|
E|-----|-----|-----|-----|     |-----|-----|-----|-----|

Ends with Gm7
e|---3---|
B|---3---|
G|---3---|
D|---3---|
A|---1---|
E|-------|



I use these chords when strumming the chorus. Seems, that Kasper strums barrées on stage.
   Eb  Gm   F     Eb  Bb  F     Eb  Gm   Dm7   C  Csus4
e|-6---10---8-----6---6---8-----6---10---10-------------|
B|-4---11---6-----4---6---6-----4---11---10----8----8---|
G|-x---12---x-----x---7---x-----x---12---10----9---10---|
D|-5---12---7-----5---8---7-----5---12---10---10----x---|
A|-6---10---8-----6---8---8-----6---10---12---10---10---|
E|---------------------------------------10-------------|


Second verse strumming
  Gm  D/F# Asus4 Gm D/F# F Cm Eb Bb  D 
e|-------------------------------------|
B|-------------------------------------|
G|-3---2-----5----3--2---2--8-12--7-11-|
D|-x---x-----x----x--x---x--x--x--x--x-|
A|-x---x-----x----x--x---x--x--x--x--x-|
E|-3---2-----5----3--2---1--8-11--6-10-|

  Gm  D/F# Asus4 Gm D/F# Asus4 Bb Cm Bb D7 
e|-----------------------------------------|
B|---------------------------------------7-|
G|-3---2-----5----3--2-----5----7--8--7--x-|
D|-x---x-----x----x--x-----x----x--x--x--x-|
A|-x---x-----x----x--x-----x----x--x--x--5-|
E|-3---2-----5----3--2-----5----6--8--6----|


************************************

| /   slide up
| \   slide down
| h   hammer-on
| p   pull-off
| ~   vibrato
| +   harmonic
| x   Mute note
| b   Bend
| pb  Pre-bend
| br  Bend release
| pbr Pre-bend release
| brb Bend release bend

************************************

Добавлено: 11.05.2015
Другие материалы по этой песне:

Страница создана 11.06.2012
http://primanota.ru/kashmir/pursuit-of-misery-chords.htm
Привет, Гость.
Предлагаем пройти революционный курс по гитаре.
Подарок от PrimaNota.Ru, забирай!