PrimaNota.ru - самый крупный в мире бесплатный архив песенных текстов, аккордов, табулатур и нот


Kashmir - Peace In Our Time - таба, видео

Регистрация Запомнить меня
Войти через:  Facebook Google Twitter Vk Yandex Mail.ru

Kashmir - Peace In Our Time - таба, видео

Печатать
Просмотров: 78
A cute little song from the album E.A.R 


e|----------------|----------------|----------------|----------------|
b|----------------|----------------|----------------|----------------|
G|---5---5---5---5|---7---7---3---3|---2---2--------|----------------|
D|-3---3--/7---7--|-8---8---5---5--|-3---3-----5---5|---3---3---2---2|
A|----------------|----------------|--------/7---7--|-1---1----------|
E|----------------|----------------|----------------|---------3---3--|



e|----------------|----------------|----------------|----------------|
b|----------------|----------------|----------------|----------------|
G|----------------|----------------|---2-------0----|---2-------2----|
D|---0---0---2---2|---3---3---3---3|-------3-------2|-------3-------3|
A|-3---3---3---3--|---------1---1--|-3---3---3---3--|-3---3---3---3--|
E|----------------|-1---1----------|----------------|----------------|


This is repeated three times, and the third time, the last F just fades in some cool way.
Добавлено: 17.10.2013
Другие материалы по этой песне:
  • Аккорды и текст

Страница создана 17.10.2013
http://primanota.ru/kashmir/peace-in-our-time-chords.htm
Привет, Гость.
Предлагаем пройти революционный курс по гитаре.
Подарок от PrimaNota.Ru, забирай!