PrimaNota.ru - самый крупный в мире бесплатный архив песенных текстов, аккордов, табулатур и нот


Kashmir - Ether - бас-таба, видео

Регистрация Запомнить меня
Войти через:  Facebook Google Twitter Vk Yandex Mail.ru

Kashmir - Ether - бас-таба, видео

Печатать
Просмотров: 122
-------------------------------------------------------------------------------
			     Ether - Kashmir
-------------------------------------------------------------------------------

Tabbed By : zoe_zoe
e-mail: cover_me_in_snow@hotmail.com

Tuning: standard

Intro/Verse:

G|-------------------------------------------------------------------------|
D|-------------------------------------------------------------------------|
A|--10-10-10-10-10-10-8-8-8-8-8-8-10-8-------------------------------------|
E|-------------------------------------6-6-6-6-6-6-6-8-8-8-8-8-8-8-8-10----|

G|-------------------------------|
D|-------------------------------|
A|--6-6-6-6-6-6-6-6-8-8-8-8-8-8--|
E|-------------------------------|

G|-------------------------------------------------------------------------|
D|-------------------------------------------------------------------------|
A|--10-10-10-10-10-10-8-8-8-8-8-8-10-8-------------------------------------|
E|-------------------------------------6-6-6-6-6-6-6-8-8-8-8-8-8-8-8-10----|

G|-------------------------------------------------------------------------|
D|-------------------------------------------------------------------------|
A|--6-6-6-6-6-6-6-6-8-8-8-8-8-8---------------------3-3-3-3-3-3-3----------|
E|------------------------------6-6-6-6-5-5-5-5-5-1------------------------|

G|-------------------------------------------------------------------------|
D|-------------------------------------------------------------------------|
A|--10-10-10-10-10-10-8-8-8-8-8-8-10-8-------------------------------------|
E|-------------------------------------6-6-6-6-6-6-6-8-8-8-8-8-8-8-8-10----|

G|-------------------------------------------------------------------------|
D|-------------------------------------------------------------------------|
A|--6-6-6-6-6-6--8-6-8-8-8-8---------------------3-3-3-3-------------------|
E|---------------------------6-6-6-6-6-5-5-5-5-1---------------------------|

Chorus:

G|-------------------------------------------------------------------------|
D|-------------------------------------------------------------------------|
A|--5-5-5-5-5-3-3-3-3-3-----------5-5-5-5---------------------10-10-10-10--|
E|----------------------3-3-3-3-3-----------6-6-6-6-8-8-8-8-8--------------|

Bridge:

G|-------------------------------------------------------------------------|
D|-------------------------------------------------------------------------|
A|--6-6-6-6-5-5-5-3-3-3-3-5-6-8-------------------3-3-3-3-5----------------|
E|------------------------------6-6-6-6-5-5-5-5-1--------------------------|

G|-------------------------------------------------------------------------|
D|----------------------------------------8-7------------------------------|
A|--6-6-6-6-5-5-5-3-3-3-3-5-6-8---------8-------3-3-3-3-10-----------------|
E|------------------------------6-6-6-6-------1----------------------------|

Ending:

G|-------------------------------------------------------------------------|
D|-------------------------------------------------------------------------|
A|--5-5-5-5-5-3-3-3-3-3-----------5-5-5-5---------------------10-10-10-10--|
E|----------------------3-3-3-3-3-----------6-6-6-6-8-8-8-8-8--------------|

G|-------------------------------------------------------------------------|
D|-------------------------------------------------------------------------|
A|----------------------------10-10-10-10---------------------------10-10--|
E|--10-8-10-6-6-6-6-8-8-8-8-8-------------10-8-10-6-6-6-6-8-8-8-8-8--------|

G|-------------------------------------------------------------------------|
D|-------------------------------------------------------------------------|
A|--10---------------------------------------------------------------------|
E|-----10-8-10-6-6-6-6-8-8-8-----------------------------------------------|


| /  slide up
| \  slide down
| h  hammer-on
| p  pull-off
| ~  vibrato
| +  harmonic
| x  Mute note
===============================================================================
Добавлено: 07.03.2012
Другие материалы по этой песне:

Страница создана 07.03.2012
http://primanota.ru/kashmir/ether-chords.htm
Привет, Гость.
Предлагаем пройти революционный курс по гитаре.
Подарок от PrimaNota.Ru, забирай!