PrimaNota.ru - самый крупный в мире бесплатный архив песенных текстов, аккордов, табулатур и нот


Kashmir - Beamed - текст песни, таба, видео

Регистрация Запомнить меня
Войти через:  Facebook Google Twitter Vk Yandex Mail.ru

Kashmir - Beamed - текст песни, таба, видео

Печатать
Просмотров: 142
e---3--5--7--8--7--5--3--5--3--3----3-------3------------------------------|
H---3--3--3--3--3--3--3--3--3--3----3-------3------------------------------|
G---0--0--0--0--0--0--0--3--3--2----0-------0------------------------------|
D------------------------------3----0-------0---0^1------------------------|
A-----------------------------------2---0^1--------------------------------|
E-----------------------------------3--------------------------------------|
Sun is shining, I can only.......

e---3--3---3---3----3---3---3--------------3--3---3---3---3---3---3--------|
H---3--3---3---3----3---3---3--------------3--3---3---3---3---3---3--------|
G---0--0---0---0----0---0---0--------------0--0---0---0---0---0---0--------|
D---2--0---0--------0---2---0--------------2--0---0-------0---2---0--------|
A---3--2---0--------2---3---2--------------3--2---0-------2---3---2--------|
E--------------2----3-------3-------------------------2---3-------3--------|
I am beameeeeeeeeed.....                           beameeeeeeed......


Vers
    G   C   G   C      
e---3---3---3---3---3---3---3---3------------------------------------------|
H---3---3---3---3---3---3---3---3------------------------------------------|
G---------------------------2---------------Spilles 2 gange----------------|
D-------2-------2-----------3---2------------------------------------------|
A---2---3---2---3---2---1-------3------------------------------------------|
E---3-------3--------------------------------------------------------------|

Bridge
     D    C
e----2----3----3---3---3---3---3---3----3---3---3--3-----------------------|
H----3----3----3---3---3---3---3---3----3---3---3--3-----------------------|
G----2----0----0---0---0---0---0---0----0---0---0--0----Spilles 2 gange----|
D---------2----0---0---1---0---0---0----0---0---0--0-----------------------|
A---------3----1---0-----------3---1----0---0---0--------------------------|
E-------------------------------------------3---2--------------------------|
Добавлено: 22.06.2012
Другие материалы по этой песне:
  • Аккорды и текст

Страница создана 28.03.2012
http://primanota.ru/kashmir/beamed-chords.htm
Привет, Гость.
Предлагаем пройти революционный курс по гитаре.
Подарок от PrimaNota.Ru, забирай!