PrimaNota.ru - самый крупный в мире бесплатный архив песенных текстов, аккордов, табулатур и нот


Kasabian - West Rider Silver Bullet - текст песни, бас-таба, видео

Регистрация Запомнить меня
Войти через:  Facebook Google Twitter Vk Yandex Mail.ru

Kasabian - West Rider Silver Bullet - текст песни, бас-таба, видео

Печатать
Просмотров: 266
Band: Kasabian
Song: West Ryder Silver Bullet
Album: West Ryder Pauper Lunatic Asylum (2009)
Bassist: Chris Edwards
Tuning: Standard

First of all, I apologize for wrong title...
No bass 0:00 - 0:25

Verse:

G|--6-.---6/|    |--9-.---9\|    Just figure out how to play this.
D|4---4-4---|    |7---7-7---|           It's very easy.
A|----------|    |----------| 
E|----------|    |----------|

Dots above those notes means staccato and these slides are only before You'll
go up or down the neck.


Chorus (play it octave higher if You want, I prefer to play it like below):

G|----------------------------------------------------------|
D|----------------------------------------------------------|
A|--------------4-2-0-----------------4-2-0-----------------|
E|2~--3~--5~----------3-2~--3~--5~----------3------3~-2~----|

Back to first riff.

That's almost all.

You can play ending like this...
(not really sure is that correct, anyway starts on 4:21)

G|--6-.---6-|    |--6-------|--9-.---9-|--9-------|--6-.---6-|--6-------|
D|4---4-4---|    |4----/9-9-|7---7-7---|7----/9-9-|4---4-4---|4----/7-7-|
A|----------|    |----------|----------|----------|----------|----------|
E|----------| x3 |----------|----------|----------|----------|----------|

G|--6-.---6-|    |--6-------|--9-.---9-|--9-------|--6-.---6-|--6-.---6~|
D|4---4-4---|    |4----/9-9-|7---7-7---|7----/9-9-|4---4-4---|4---4-4---|
A|----------|    |----------|----------|----------|----------|----------|
E|----------| x3 |----------|----------|----------|----------|----------|

/  slide up
\  slide down
h  hammer-on
p  pull-off
~  let ring
Добавлено: 26.07.2012
Другие материалы по этой песне:
  • Аккорды и текст

Страница создана 26.07.2012
http://primanota.ru/kasabian/west-rider-silver-bullet-chords.htm
Привет, Гость.
Предлагаем пройти революционный курс по гитаре.
Подарок от PrimaNota.Ru, забирай!