PrimaNota.ru - самый крупный в мире бесплатный архив песенных текстов, аккордов, табулатур и нот


Kasabian - Clouds - текст песни, таба, видео

Регистрация Запомнить меня
Войти через:  Facebook Google Twitter Vk Yandex Mail.ru

Kasabian - Clouds - текст песни, таба, видео

Печатать
Просмотров: 204
----------------------------------------------------------------- 
CLOUDS - Kasabian
----------------------------------------------------------------- 
Album: 48:13
Year: 2014

Email: curlyw42@gmail.com

Tuning: Standard (EADGBe)
No capo

One of the best songs from their new album. First tab, so apologies for any mistakes. 
Feel free to submit corrections. I've watched videos for reference, but also done a lot by ear.

There are two guitars in this song; both play the verse, and Serge plays the post-chorus chords, whereas the 
second plays post-chorus lead.

Chords:
D5:       x577xx
C5:       x355xx
D:        x00212
F:        133211
G:        355433

Chorus:
                     D5                        C5 (until post-chorus)
e|-------------x1|-----------------------x8|---------------------|
B|---------------|-------------------------|---------------------|
G|---5-5-5-4-0---|---777777777-5-5-5-4-0---|---555555555555555---|
D|---------------|---777777777-------------|---555555555555555---|
A|---------------|---555555555-------------|---333333333333333---|
E|---------------|-------------------------|---------------------|

Post-chorus:
            D      F        G       D
e|---------------------------------------------------------------|
B|---8-7--8-7----------------------------------------------------|
G|------------7--7-10-10-10-12-10-9-10p9-7-----------------------|
D|---------------------------------------------------------------|
A|---------------------------------------------------------------|
E|---------------------------------------------------------------|


            D        F         G    D
e|---------------------------------------------------------------|
B|---8-7--8-7-10--10-13-13-13-13s10-8h10-------------------------|
G|---------------------------------------------------------------|
D|---------------------------------------------------------------|
A|---------------------------------------------------------------|
E|---------------------------------------------------------------|



LYRICS:

[Verse 1]
Walking through a shopping centre
On a very strange adventure
I tilt my head to the gap you walked in on before
Sifting through the magazines
Crawling on the baggy jeans
Looking at the pile of all the things we took
As a thousand eyes look on we couldn't give a fuck

[Chorus]
Where do you go
When you're underneath the rainbow?
Write a letter to yourself
Telling you, you got to let go
Take a walk outside
The rain is never ending
Leave your buckets and your spade
It's time to stop pretending

We rise above the clouds
We rise above the clouds

[Post-chorus]

[Verse 2]
Mannequins make accusations
I'm paralysed by palpitations
I can't control my laughter when you're so sincere
I can't control my laughter when you're so sincere

[Chorus]
[Post-chorus x2]

Synths then do the outro.


| /  slide up
| \  slide down
| h  hammer-on
| p  pull-off
| ~  vibrato
| +  harmonic
| x  Mute note
Добавлено: 03.08.2015
Другие материалы по этой песне:
  • Аккорды и текст

Страница создана 11.08.2014
http://primanota.ru/kasabian/clouds-chords.htm
Привет, Гость.
Предлагаем пройти революционный курс по гитаре.
Подарок от PrimaNota.Ru, забирай!