PrimaNota.ru - самый крупный в мире бесплатный архив песенных текстов, аккордов, табулатур и нот


Karolina - Dont Be Late - таба, видео

Регистрация Запомнить меня
Войти через:  Facebook Google Twitter Vk Yandex Mail.ru

Karolina - Dont Be Late - таба, видео

Печатать
Просмотров: 21
Уроки эстрадного вокала в Санкт-Петербурге
Karolina - Don't Be Late

Written By: Keren "Karolina" Avratz & Uri Brauner Kinrot


Tabbed by Avi Yaacov
Israel, December 26, 2015


Super funky song with a cool lead all over...



Verse + Intro (and during solos) :
Cm / Fm / Eb / Fm
Cm / Fm / Eb / Db


Chorus:
Eb / Db / Cm / Fm
Eb / Db / Cm / Cm



Repeating Lead:

e|--------------------------------------------------------------|
B|--8h9-8-8---8-11-9-8---------------8-9--------------11-9-8-8--|
G|---------------------10-8-----8-10-----/12----12-12-----------|
D|--------------------------------------------------------------|
A|--------------------------------------------------------------|
E|--------------------------------------------------------------|

e|-----------------------------------------------------------------------|
B|--8h9-8-9p8---8-11-9-8---------------8-9-8-----------------------------|
G|-----------------------6-10-----8-10-------10-------------10-8/6-------|
D|--------------------------------------------------8-10-11--------8/10--|
A|-----------------------------------------------------------------------|
E|-----------------------------------------------------------------------|

e|--(13)/15-16-15-15---18-16-15---------------15-16-13/15---15h18-16-15-----|
B|------------------------------18-16---16-18---------------------------18--|
G|--------------------------------------------------------------------------|
D|--------------------------------------------------------------------------|
A|--------------------------------------------------------------------------|
E|--------------------------------------------------------------------------|

                                                       trill
e|--15h16-15-15h16---15-18-16-15----------------15-15h16p16-----|
B|-------------------------------18-16----16-18-------------18--|
G|--------------------------------------------------------------|
D|--------------------------------------------------------------|
A|--------------------------------------------------------------|
E|--------------------------------------------------------------|

e|----------------------------------------------------|
B|--------14-18-16--13h14p13h14p13h14p13h14p13h14p13--|
G|--15-17---------------------------------------------|
D|----------------------------------------------------|
A|----------------------------------------------------|
E|----------------------------------------------------|

Добавлено: 16.06.2016
Другие материалы по этой песне:
  • Аккорды и текст

Страница создана 16.06.2016
http://primanota.ru/karolina-2/dont-be-late-chords.htm
Привет, Гость.
Предлагаем пройти революционный курс по гитаре.
Подарок от PrimaNota.Ru, забирай!