PrimaNota.ru - самый крупный в мире бесплатный архив песенных текстов, аккордов, табулатур и нот


Karma - Naya Sapana Naya Sahar - аккорды и текст, видео

Регистрация Запомнить меня
Войти через:  Facebook Google Twitter Vk Yandex Mail.ru

Karma - Naya Sapana Naya Sahar - аккорды и текст, видео

Печатать
Просмотров: 99
Naya Sapana Naya Sahar
Karma
E|-4-5-7-7-7-5-4---|
A|---------------7-|
D|-----------------|
G|-----------------|
B|-----------------|
E|-----------------|

Play above tab twice

 

 

     E              F#m
naya sapana naya sahar
      E             F#m
manma liyera kehi rahar
     E               F#m
ghar baata aaye ma tadha
      E                 F#m
aaphanta saathi chodi sara
         E            F#m           E
dherai tadha dherai tadha  dherai tadha

 

 

E|-4-5p4-----9-7-5-4-----4-5h7----5p4----------|
A|-------7-7---------7---------7------5-2-3-5--|
D|---------------------------------------------|
G|---------------------------------------------|
B|---------------------------------------------|
E|---------------------------------------------|

 

 


     E               F#m
kehi pal ma dherai ramaye
            E           F#m     
taha nai bhaena ke ke gumaye
      D      E           D      E
yo anjaan deshma kehi garne sochdai
     A      E          F#m      E
paraiko bhidma kohi aaphno khojdai

 

 


A                                      E
  pahile nai thiye ma dherai dherai khusi
A                                  E
  kohi ta thiyo saath man hunda dukhi
F#m                  E 
    yaha ta kasailai   kehi bhanna gaaro
F#m             E            A                E
    ghar samjhi   kati palta   mana huncha saaro
F#m              E 
    mana huncha saaro
Добавлено: 12.08.2015
Другие материалы по этой песне:
  • Аккорды и текст

Страница создана 12.08.2015
http://primanota.ru/karma/naya-sapana-naya-sahar-chords.htm
Привет, Гость.
Предлагаем пройти революционный курс по гитаре.
Подарок от PrimaNota.Ru, забирай!