PrimaNota.ru - самый крупный в мире бесплатный архив песенных текстов, аккордов, табулатур и нот


Karma To Burn - Forty-three - таба, видео

Регистрация Запомнить меня
Войти через:  Facebook Google Twitter Vk Yandex Mail.ru

Karma To Burn - Forty-three - таба, видео

Печатать
Просмотров: 167
Уроки эстрадного вокала в Санкт-Петербурге
Karma to Burn - Forty-Three

Drop D Tuning

INTRO

E------------------------------------------------------------------------|
B------------------------------------------------------------------------|
G------------------------------------------------------------------------|
D--3~------0h3p0h3~---------0h3p0h3~------0h3p0h3~----33333--00030-------|
A------------------------------------------------------------------------|
D------------------------------------------------------------------------|

E----------------------------------------------|
B----------------------------------------------|
G----------------------------------------------|
D---3h5-3h5--2h3/8~---8p7-8p7-5h7--5~----------|
A----------------------------------------------|
D----------------------------------------------|  x4

VERSE 1

E--------------------------------------------------------------------------------------------|
B--------------------------------------------------------------------------------------------|
G--------------------------------------------------------------------------------------------|
D----333/5--333/5--333/5--333/5--555555--5-----5--55-55-55-5-55/--10-10--5-5-55-55--6-5-3-55-|
A----333/5--333/5--333/5--333/5--555555--5-----8--55-88-55-8-55/--10-10--5-8-55-88--6-5-3-55-|
D----333/5--333/5--333/5--333/5--555555--5-----5--55-55-55-5-55/--10-10--5-5-55-55--6-5-3-55-|

VERSE 2
E-----------------------------------------------------|
B-----------------------------------------------------|
G-----------------------------------------------------|
D----5-----5--55-55-55-5-55/--99--5-5-55-55--6-5-3-55-|
A----5-----8--55-88-55-8-55/--99--5-8-55-88--6-5-3-55-|
D----5-----5--55-55-55-5-55/--99--5-5-55-55--6-5-3-55-|  x4

VERSE 3
E----------------------------------------------|
B----------------------------------------------|
G----------------------------------------------|
D-----8----1p0-33--5555-6-55--333333-2-33------|
A-----8--------33--5555-5-55--333333-2-33------|
D-----8--------33--5555-5-55--333333-2-33------|

VERSE 4
E---------------------------------|
B---------------------------------|
G---------------------------------|
D-----5555-6-55--3h5-3h5--2h3/8~~-|
A-----5555-5-55-------------------|
D-----5555-5-55-------------------|

E---------------------------------|
B---------------------------------|
G---------------------------------|
D-----5555-6-55--333333-2-33------|
A-----5555-5-55--333333-2-33------|
D-----5555-5-55--333333-2-33------|

E---------------------------------|
B---------------------------------|
G---------------------------------|
D-----5555-6-55--8p7-8p7-5h7--5~--|
A-----5555-5-55-------------------|
D-----5555-5-55-------------------|

E---------------------------------|
B---------------------------------|
G---------------------------------|
D-----5555-6-55--333333-2-33------|
A-----5555-5-55--333333-2-33------|
D-----5555-5-55--333333-2-33------|

E---------------------------------|
B---------------------------------|
G---------------------------------|
D-----5555-6-55-5-8888--33-55-----|
A-----5555-5-55-5-8888--33-55-----|
D-----5555-5-55-5-8888--33-55-----|


Suspense part
E------------------------------------------|
B------------------------------------------|
G------------------6b6b--------------6b6b--|
D-----333---555----------888--555----------|
A-----333---555----------888--555----------|
D-----333---555----------888--555----------|  x3

E-----------------------------------------------|
B-----------------------------------------------|
G-----------------------------------------------|
D-----101010-1010--3-4-44-8-88-10-1010-12-12\---|
A-----101010-1010--3-4-44-8-88-10-1010-12-12 ---| twelve fret about 9 times at the end
D-----101010-1010--3-4-44-8-88-10-1010-12-12----|

OUTRO
E----------------------------------------------------------|
B----------------------------------------------------------|
G----------------------------------------------------------|
D-----1p0-33-5----1p0-33-5----1p0-33-5----1p0-33-6-5-3-55--|
A---------33-5--------33-5--------33-5--------33-6-5-3-55--|
D---------33-5--------33-5--------33-5--------33-6-5-3-55--|
Добавлено: 04.03.2012
Другие материалы по этой песне:
  • Аккорды и текст

Страница создана 04.03.2012
http://primanota.ru/karma-to-burn/forty-three-chords.htm
Привет, Гость.
Предлагаем пройти революционный курс по гитаре.
Подарок от PrimaNota.Ru, забирай!