PrimaNota.ru - самый крупный в мире бесплатный архив песенных текстов, аккордов, табулатур и нот


Karl Wolf - Butterflies - текст песни, таба, видео

Регистрация Запомнить меня
Войти через:  Facebook Google Twitter Vk Yandex Mail.ru

Karl Wolf - Butterflies - текст песни, таба, видео

Печатать
Просмотров: 230
the intro is done on another instrument....but the lovely guitars can do it too...sounds
pretty much the same...


-----------------------------------------------------------------------
--------------------------------------------------------10-------------
--------------------6-7-6----6-7-9-7-6----6----6-----------------------
-----7-7-7-7----7-8--------8------------8----8----8-7------------------
---0----------0--------------------------------------------------------
-----------------------------------------------------------------------

-----------------------------------------------------------------------
-----------------------------------------------------------------------
----------6--6--77--9-7-6---6---------------6--6--77--9-7--6---6-------
----7-88----8-------------8-----8-----7--88---8--------------8---------
--0--------------------------------00----------------------------------
-----------------------------------------------------------------------


the dams like a butterfly.......
enjoy......
you can add some hammers and pull of us but i don think you need to if you can play it fast enough ......
Добавлено: 13.03.2012
Другие материалы по этой песне:
  • Аккорды и текст

Страница создана 07.03.2012
http://primanota.ru/karl-wolf/butterflies-chords.htm
Привет, Гость.
Предлагаем пройти революционный курс по гитаре.
Подарок от PrimaNota.Ru, забирай!