PrimaNota.ru - самый крупный в мире бесплатный архив песенных текстов, аккордов, табулатур и нот


Карл Дженкинс - Palladio - таба, видео

Регистрация Запомнить меня
Войти через:  Facebook Google Twitter Vk Yandex Mail.ru

Карл Дженкинс - Palladio - таба, видео

Печатать
Просмотров: 360
Авторы музыки: Karl Jenkins

Author/Artist: Karl Jenkins
Title: Palladio
Album: Palladio
Transcribed by: Jake Boone
Email: jsnake02@yahoo.com

   Most people recognize this as the DeBeers diamond commercial (with the
shadows putting the rings on) from the 90's.  It's a pretty difficult song on
guitar, but it's fun and there's a lot of repetition.

I only changed a few things from the orchestral version:
 - left out notes that were impossible to get to, (still sounds good, though);
   the first eight measures are a good example.
 - when the climax begins in measure 29, I left the repeating sixteenth notes
   as eighth notes because it was entirely too fast to play.
   If you want to try it, just play every note twice (except the bass notes)
   for measures 29, 30, and 31.

Performance note:
   I play this legato, letting all the notes ring, although the original has
more of a marchy, staccato feel.  Legato is easier to play and it gives the
song a more haunting mood coming from a guitar.

The tuning is Drop D (low to high - D A D G B E).

1
------------------|-----------------|-----------------|-----------------|-----
------------------|-----------------|-----------------|-----------------|-----
------------------|-----------------|-----------------|-----------------|-----
----3p2-3-0-----3-|-5p3-5-----------|---5p3-5-2-----5-|-3p2-3-----------|-----
------------------|-----------------|-----------------|-----------------|-----
--0-------0-------|-0-------0-------|-0-------0-------|-0-------0-------|-----
                                                                              
4
------------------|-----------------|-----------------|-----------------|-----
------------------|-----------------|-----------------|-----------------|-----
------------------|-----------------|-----------3p2-0-|-----------------|-----
---3p2-3-0------3-|-5p3-5-----------|---5p3-5-2-------|-3p2-0-----------|-----
------------------|-----------------|-----------------|-----------------|-----
-0-------0--------|-0-------0-------|-0-------0-------|-0-------0-------|-----
                                                                              
9
----1p0-1-------1-|-3p1-3-----------|---3p1-3-0-5-----|-1p0-1-----------|-----
----------3-------|-----------------|-----------------|-----------------|-----
----2p0-2-2-----2-|-3p2-3-----------|---3p2-3-3-----3-|-2p0-2-----------|-----
----0-0-0-0-0-0-0-|---0-0-0-0-0-0-0-|---0-0-0-0-0-0-0-|---0-0-0-0-0-0-0-|-----
------------------|-----------------|-----------------|-----------------|-----
--0---------------|-0---------------|-0---------------|-0---------------|-----
                                                                              
13
----1p0-1-------1-|-3p1-3-----------|---3p1-3-0-6-5-3-|-1p0-------------|-----
----------3-------|-----------------|-----------------|-----------------|-----
----2p0-2-2-----2-|-3p2-3-----------|---3p2-3-0-7-5-3-|-2p0-7-----------|-----
----0-0-0-0-0-0-0-|---0-0-0-0-0-0-0-|---0-0-0-0-0-0-0-|---0-0-0-0-0-0-0-|-----
------------------|-----------------|-----------------|-----8-----------|-----
--0---------------|-0---------------|-0---------------|-0---------------|-----
                                                                              
17
----1-0-1---1-0-1-|-----------------|-----------------|-----0-----------|-----
------------------|---5-3-5---5-3-5-|---3-2-3---3-2-3-|-2-3---2-3-------|-----
----2-0-2---2-0-2-|-----------------|-----------------|-----0---2-2-----|-----
--0---0-----------|---5-3-5---5-3-5-|---3-2-3---3-2-3-|-2-3---2---3-3-0-|-----
----------1---1---|-3---3---0---0---|-1---1-----------|-0---0-------0-0-|-----
------------------|-----------------|---------5---5---|---------0---0---|-----
                   [Bar III]                                                  
21
----1-0-1---1-0-1-|-----------------|-----------------|-----------------|-----
------------------|---5-3-5---5-3-5-|---3-2-3---3-2-3-|---3-2-3---3-2-3-|-----
----2-0-2---2-0-2-|-----------------|-----------------|-----------------|-----
--0-0---0---------|---5-3-5---5-3-5-|---3-2-3---3-2-3-|-3-3-3-3-3-3-3-3-|-----
----------1-1---1-|-3-3---3-0-0---0-|-1-1---1---------|-----------------|-----
------------------|-----------------|---------5-5---5-|-6---6---6---6---|-----
                   [Bar III]                                                  
25
------------------|-----------------|---------------------------------|-------
--2-2-0-2-3-3-2-3-|-5-5-3-5-6-6-5-3-|-2---2-------0-2-3---3---0---2-3-|-------
------------------|-----------------|---------2-----------------------|-------
--2-2-0-2-3-3-2-3-|-5-5-3-5-7-7-5-3-|-2---2-------0-2-3---3---0---2-3-|-------
--0---0---0---0---|-0---0---0---0---|-0-------0-------0-------0-------|-------
------------------|-----------------|---------------------------------|-------
                                                                              
28
----------------------------------|-----------------|-----------------|-------
--5---5---2---3-5-6---6---5---3---|-2-2-0-2-3-3-2-3-|-5-5-3-5-6-6-5-3-|-------
----------------------------------|-----------------|-----------------|-------
--5---5---2---3-5-7---7---5---3---|-2-2-0-2-3-3-2-3-|-5-5-3-5-6-6-5-3-|-------
--0-------0-------0-------0-------|-0-0-0-0-0-0-0-0-|-0-0-0-0-0-0-0-0-|-------
----------------------------------|-----------------|-----------------|-------
                                                                              
31
------------------|-----------------------------|---------------------|-------
--2-2-2-2-2-2-2-2-|----2------------------------|---------------------|-------
------------------|---2-------------------------| [repeat measures 1 -|-------
--2-2-2-2-2-2-2-2-|--2--------------------------|  through 16 here]  -|-------
--0-0-0-0-0-0-0-0-|-0---------------------------|---------------------|-------
------------------|-----------------------------|---------------------|-------
                    ^ strum slowly and let ring                               
33
--1--1--1--1--1--1--1--1-|-2--2--2--2--2--2--2--2-|-3--3--3--3--3--3--3--3-|--
--3--3--3--3--3--3--3--3-|-4--4--4--4--4--4--4--4-|-5--5--5--5--5--5--5--5-|--
--2--2--2--2--2--2--2--2-|-4--4--4--4--4--4--4--4-|-4--4--4--4--4--4--4--4-|--
--0--0--0--0--0--0--0--0-|------------------------|-2--2--2--2--2--2--2--2-|--
-------------------------|-2--2--2--2--2--2--2--2-|------------------------|--
-------------------------|------------------------|------------------------|--
                           [Bar II -->                                    ]   
36
--5--5--5--5--5--5--5--5-|-7--7--7--7--7--7--7--7-|-9--9--9--9--9--9--9--9-|--
--7--7--7--7--7--7--7--7-|-8--8--8--8--8--8--8--8-|-11-11-11-11-11-11-11-11|--
--7--7--7--7--7--7--7--7-|-7--7--7--7--7--7--7--7-|-11-11-11-11-11-11-11-11|--
-------------------------|------------------------|------------------------|--
--5--5--5--5--5--5--5--5-|-10-10-10-10-10-10-10-10|-9--9--9--9--9--9--9--9-|--
-------------------------|------------------------|------------------------|--
  [Bar V -->            ]  [Bar VII -->          ]  [Bar IX -->               
39
--10-10-10-10-10-10-10-10|-12-12-12-12-12-12-12-12|---------------------------
--12-12-12-12-12-12-12-12|-14-14-14-14-14-14-14-14|---------------------------
--11-11-11-11-11-11-11-11|-14-14-14-14-14-14-14-14|---------------------------
--9--9--9--9--9--9--9--9-|------------------------|---------------------------
-------------------------|-12-12-12-12-12-12-12-12|---------------------------
-------------------------|------------------------|---------------------------
                        ]  [Bar XII -->          ]                            
41
--10---------------------|-10---------------------|-10------------------------
-----10----10----10----10|----10----10----10----10|----10----10----10----10---
--------11----------11---|-------11----------11---|-------11----------11------
--------------12---------|-------------12---------|-------------12------------
-------------------------|------------------------|---------------------------
--0----------------------|-0----------------------|-0-------------------------
  [Bar X -->                                                                  
44
--10---------------------|-10---------------------|---------------------------
-----10----10----10----10|-10---------------------|---------------------------
--------11----------11---|-11---------------------|---------------------------
--------------12---------|-12---------------------|---------------------------
-------------------------|-12---------------------|---------------------------
--0----------------------|-0----------------------|---------------------------
  [Bar X -->                                     ]                            
     
Добавлено: 04.12.2013
Другие материалы по этой песне:

Страница создана 28.05.2012
http://primanota.ru/karl-jenkins/palladio-chords.htm
Привет, Гость.
Предлагаем пройти революционный курс по гитаре.
Подарок от PrimaNota.Ru, забирай!