PrimaNota.ru - самый крупный в мире бесплатный архив песенных текстов, аккордов, табулатур и нот


Karkwa - Oublie Pas - таба, бас-таба, видео

Регистрация Запомнить меня
Войти через:  Facebook Google Twitter Vk Yandex Mail.ru

Karkwa - Oublie Pas - таба, бас-таба, видео

Печатать
Просмотров: 112
Авторы: Louis-Jean Cormier, François Lafontaine

-------------------------------------------------------------------------------
                             Oublie pas - Karkwa
-------------------------------------------------------------------------------
Tabbed by: Philipon
E-mail: philipe98@hotmail.ca

Tuning: E-A-D-F-Bb-F



Couplet

F|--0------0------0---0---0---0---0------0------0---0---0---0----------------------------|
Bb|-0------0------0---0---0---0---0------0------0---0---0---0----------------------------|
F|--0------0------0---0---0---0---0------0------0---4---0---0----------------------------|
D|--0------0------0---0---0---3---5------5------5---5---5---3----------------------------| Répéter 12x
A|--1------1------1---3---5---5---5------5------5---5---5---5----------------------------|
E|--x------x------x---x---x---x---x------x------x---x---x---x----------------------------|



Refrain

F|--0---0---0---0---0---0---0---0---0---0---0---0---0---0---0---0-------------------------------|
Bb|-0---0---0---0---0---0---0---0---0---0---0---0---0---0---0---0-------------------------------|
F|--0---0---0---0---0---0---0---0---0---0---0---0---0---0---0---0-------------------------------|
D|--3---3---3---3---3---3---3---3---5---5---5---5---5---5---5---5-------------------------------|
A|--3---3---3---3---3---3---3---3---5---5---5---5---5---5---5---5-------------------------------|
E|--1---1---1---1---1---1---1---1---3---3---3---3---3---3---3---3-------------------------------|

F|--0---0---0---0---0---0---0---0---0---0---0---0---0---0---0---0-------------------------------|
Bb|-0---0---0---0---0---0---0---0---0---0---0---0---0---0---0---0-------------------------------|
F|--0---0---0---0---0---0---0---0---0---0---0---0---0---0---0---0-------------------------------|
D|--10--10--10--10--8---8---8---8---5---5---5---5---5---5---5---5-------------------------------|
A|--10--10--10--10--8---8---8---8---6---6---6---6---6---6---6---6-------------------------------|
E|--8---8---8---8---6---6---6---6---6---6---6---6---6---6---6---6-------------------------------|

F|--0---0---0---0---0---0---0---0---0---0---0---0---0---0---0---0-------------------------------|
Bb|-0---0---0---0---0---0---0---0---0---0---0---0---0---0---0---0-------------------------------|
F|--0---0---0---0---0---0---0---0---0---0---0---0---0---0---0---0-------------------------------|
D|--3---3---3---3---3---3---3---3---5---5---5---5---5---5---5---5-------------------------------|
A|--3---3---3---3---3---3---3---3---5---5---5---5---5---5---5---5-------------------------------|
E|--1---1---1---1---1---1---1---1---3---3---3---3---3---3---3---3-------------------------------|

F|--0---0---0---0---0---0---0---0---0---0---0---0---0---0---0---0---0------0---0---0------0---0-|
Bb|-0---0---0---0---0---0---0---0---0---0---0---0---0---0---0---0---0------0---0---0------0---0-|
G|--0---0---0---0---0---0---0---0---0---0---0---0---0---0---0---0---0------0---0---0------0---0-|
D|--10--10--10--10--8---8---8---8---5---5---5---5---5---5---5---5---3------3---3---5------5---5-|
A|--10--10--10--10--8---8---8---8---6---6---6---6---6---6---6---6---4------4---4---6------6---6-|
E|--8---8---8---8---6---6---6---6---6---6---6---6---6---6---6---6---4------4---4---6------6---6-|



Couplet (Répéter 10x)




Bridge

F|--0---0---0---0---0---0---0---0---0---0---0---0---0---0---0---0-------------| )
Bb|-0---0---0---0---0---0---0---0---0---0---0---0---0---0---0---0-------------|  )
F|--0---0---0---0---0---0---0---0---0---0---0---0---0---0---0---0-------------|   )
D|--3---3---3---3---3---3---3---3---5---5---5---5---5---5---5---5-------------|    )
A|--4---4---4---4---4---4---4---4---6---6---6---6---6---6---6---6-------------|     )
E|--4---4---4---4---4---4---4---4---6---6---6---6---6---6---6---6-------------|      )
                                                                                     )-­­Répéter 3x
F|--0---0---0---0---0---0---0---0---0---0---0---0---0---0---0---0-------------|      )
Bb|-0---0---0---0---0---0---0---0---0---0---0---0---0---0---0---0-------------|     )
F|--0---0---0---0---0---0---0---0---0---0---0---0---0---0---0---0-------------|    )
D|--5---5---5---5---5---5---5---5---4---4---4---4---4---4---4---4-------------|   )
A|--5---5---5---5---5---5---5---5---4---4---4---4---4---4---4---4-------------|  )
E|--x---x---x---x---x---x---x---x---x---x---x---x---x---x---x---x-------------| )

F|--0---0---0---0---0---0---0---0---0---0---0---0---0---0---0---0-------------|
Bb|-0---0---0---0---0---0---0---0---0---0---0---0---0---0---0---0-------------|
F|--0---0---0---0---0---0---0---0---0---0---0---0---0---0---0---0-------------|
D|--3---3---3---3---3---3---3---3---5---5---5---5---5---5---5---5-------------|
A|--4---4---4---4---4---4---4---4---6---6---6---6---6---6---6---6-------------|
E|--4---4---4---4---4---4---4---4---6---6---6---6---6---6---6---6-------------|


F|--0------0------0---0---0---0---0------0------0---0---0---0-----------------|
Bb|-0------0------0---0---0---0---0------0------0---0---0---0-----------------|
F|--0------0------0---0---0---0---0------0------0---4---0---0-----------------|
D|--0------0------0---0---0---3---5------5------5---5---5---3-----------------|
A|--1------1------1---3---5---5---5------5------5---5---5---5-----------------|
E|--x------x------x---x---x---x---x------x------x---x---x---x-----------------|

Voilà! C'est la première tablature que je fais, j'espère que vous apprécierez!
Ce n'est pas parfait, j'en suis conscient. Je l'ai faite à l'oreille et en
regardant des vidéos de Karkwa live, et c'est le mieux que j'ai pu faire.
Ma version est donc un peu simplifiée. Si vous avez des suggestions, corrections,
interrogations, témoignages d'admiration, etc., n'hésitez pas!
Добавлено: 19.08.2014
Другие материалы по этой песне:
  • Аккорды и текст

Страница создана 14.07.2012
http://primanota.ru/karkwa/oublie-pas-chords.htm
Привет, Гость.
Предлагаем пройти революционный курс по гитаре.
Подарок от PrimaNota.Ru, забирай!