PrimaNota.ru - самый крупный в мире бесплатный архив песенных текстов, аккордов, табулатур и нот


Karkwa - Deux Lampadaires - таба, бас-таба, видео

Регистрация Запомнить меня
Войти через:  Facebook Google Twitter Vk Yandex Mail.ru

Karkwa - Deux Lampadaires - таба, бас-таба, видео

Печатать
Просмотров: 107
-------------------------------------------------------------------------------
                   Deux lampadaires - Karkwa
-------------------------------------------------------------------------------
Tabbed by: Philipon
E-mail: philipe98@hotmail.ca

Tuning: Standard

Intro (0:00)
e|-5-------5-------3-------3-------2-------2-------2-------2-------|
B|-3-------3-------1-------1-------0-------0-------0-------0-------|
G|---0---0---0---0---0---0---0---0---0---0---0---0---0---0---0---0-| Repeat
D|-----4-------4-------2-------2-------0-------0-------0-------0---|   2x
A|-----------------------------------------------------------------|
E|-----------------------------------------------------------------|


Verse (0:11)
e|-5-------5-------3-------3-------2-------2-------2-------2-------|
B|-3-------3-------1-------1-------0-------0-------0-------0-------|
G|---0---0---0---0---0---0---0---0---0---0---0---0---0---0---0---0-| Repeat
D|-----4-------4-------2-------2-------0-------0-------0-------0---|   3x
A|-----------------------------------------------------------------|
E|-----------------------------------------------------------------|

e|-2-------2-------0-------0---------------------------------------|
B|-0-------0-------0-------0-------3-------3-------3-------3-------|
G|---0---0---0---0---0---0---0---0-4-------4-------4-------4-------|
D|-----------------------------------4---4---4---4---4---4---4---4-|
A|-----3-------3-------3-------3-------2-------2-------2-------2---|
E|-----------------------------------------------------------------|

e|-2-------2-------0-------0---------------------------------------|
B|-0-------0-------0-------0-------3-------3-------3---------------|
G|---0---0---0---0---0---0---0---0-0-------0-------0---------------|
D|-----------------------------------0---0---0---0-----------------|
A|-----3-------3-------3-------3-----------------------------------|
E|-------------------------------------3-------3-------------------|

(0:39)
e|-5-------5-------3-------3-------2-------2-------2-------2-------|
B|-3-------3-------1-------1-------0-------0-------0-------0-------|
G|---0---0---0---0---0---0---0---0---0---0---0---0---0---0---0---0-| Repeat
D|-----4-------4-------2-------2-------0-------0-------0-------0---|   3x
A|-----------------------------------------------------------------|
E|-----------------------------------------------------------------|

e|-2-------2-------0-------0---------------------------------------|
B|-0-------0-------0-------0-------3-------3-------3-------3-------|
G|---0---0---0---0---0---0---0---0-4-------4-------4-------4-------|
D|-----------------------------------4---4---4---4---4---4---4---4-|
A|-----3-------3-------3-------3-------2-------2-------2-------2---|
E|-----------------------------------------------------------------|

e|-2-------2-------0-------0---------------------------------------|
B|-0-------0-------0-------0-------3-------3-------3---------------|
G|---0---0---0---0---0---0---0---0-0-------0-------0---------------|
D|-----------------------------------0---0---0---0-----------------|
A|-----3-------3-------3-------3-----------------------------------|
E|-------------------------------------3-------3-------------------|


Chorus (1:08)
   F               Em              C               Dadd9(add4)
e|-1---------------0---------------0---------------0---------------|
B|-1---------------0---------------1---------------3---------------|
G|-2---------------0---------------0---------------0---------------|Repeat
D|-3---------------2---------------2---------------4---------------|  4x
A|-----------------2---------------3---------------5---------------|
E|-----------------0-----------------------------------------------|


Verse (1:32)
 
Vibes

(1:54)
e|-5-------5-------3-------3-------2-------2-------2-------2-------|
B|-3-------3-------1-------1-------0-------0-------0-------0-------|
G|---0---0---0---0---0---0---0---0---0---0---0---0---0---0---0---0-|
D|-----4-------4-------2-------2-------0-------0-------0-------0---|
A|-----------------------------------------------------------------|
E|-----------------------------------------------------------------|

e|-2-------2-------0-------0---------------------------------------|
B|-0-------0-------0-------0-------3-------3-------3-------3-------|
G|---0---0---0---0---0---0---0---0-4-------4-------4-------4-------|
D|-----------------------------------4---4---4---4---4---4---4---4-|
A|-----3-------3-------3-------3-------2-------2-------2-------2---|
E|-----------------------------------------------------------------|
                                   G
e|-2-------2-------0-------0-------3-------------------------------|
B|-0-------0-------0-------0-------3-------------------------------|
G|---0---0---0---0---0---0---0---0-0-------------------------------|
D|---------------------------------0-------------------------------|
A|-----3-------3-------3-------3---2-------------------------------|
E|---------------------------------3-------------------------------|


Chorus (2:11)
   F               Em              C               Dadd9(add4)
e|-1---------------0---------------0---------------0---------------|
B|-1---------------0---------------1---------------3---------------|
G|-2---------------0---------------0---------------0---------------|Repeat
D|-3---------------2---------------2---------------4---------------|  4x*
A|-----------------2---------------3---------------5---------------|
E|-----------------0-----------------------------------------------|
*Fourth time, don't play the Dadd9(add4)chord, keep the C chord until the end of the chorus.


Verse (2:38)
e|-5-------5-------3-------3-------2-------2-------2-------2-------|
B|-3-------3-------1-------1-------0-------0-------0-------0-------|
G|---0---0---0---0---0---0---0---0---0---0---0---0---0---0---0---0-| Repeat
D|-----4-------4-------2-------2-------0-------0-------0-------0---|   3x
A|-----------------------------------------------------------------|
E|-----------------------------------------------------------------|

e|-2-------2-------0-------0---------------------------------------|
B|-0-------0-------0-------0-------3-------3-------3-------3-------|
G|---0---0---0---0---0---0---0---0-4-------4-------4-------4-------|
D|-----------------------------------4---4---4---4---4---4---4---4-|
A|-----3-------3-------3-------3-------2-------2-------2-------2---|
E|-----------------------------------------------------------------|
                                   G
e|-2-------2-------0-------0-------3-------------------------------|
B|-0-------0-------0-------0-------3-------------------------------|
G|---0---0---0---0---0---0---0---0-0-------------------------------|
D|---------------------------------0-------------------------------|
A|-----3-------3-------3-------3---2-------------------------------|
E|---------------------------------3-------------------------------|
Добавлено: 07.09.2014
Другие материалы по этой песне:
  • Аккорды и текст

Страница создана 03.06.2012
http://primanota.ru/karkwa/deux-lampadaires-chords.htm
Привет, Гость.
Предлагаем пройти революционный курс по гитаре.
Подарок от PrimaNota.Ru, забирай!