PrimaNota.ru - самый крупный в мире бесплатный архив песенных текстов, аккордов, табулатур и нот


Karen Busck - Hjertet Ser - аккорды и текст, видео

Регистрация Запомнить меня
Войти через:  Facebook Google Twitter Vk Yandex Mail.ru

Karen Busck - Hjertet Ser - аккорды и текст, видео

Печатать
Просмотров: 120
Hjertet Ser
Karen Busck
   ____________________________
  / Hjertet ser               /  Dette er bare en über funky popsang, men den er
 / Karen Busck ft. Erann DD  /  bestemt ikke helt ligetil! Jeg har her kogt det
/___________________________/  ned til akkorder, men jeg har også nogle mere
                              eksakte voicings noteret, hvis man er interesseret
                             i det. Bare smid mig en mail! :)

[A]Vers:
| B/C# |  -  | C# |  -  |

| F#m9 |  -  | B/C# | C#7 |


| B/C# |  -  | C# |  -  |

| Gbm11 |  -  | Bb11 |  -  |

| F#(9) |  -  | C# |  -  |



[B]Omkvæd:
| F#m9  Abm7(4) | C#7 | F#m9  Abm7(4) | Bbm7 |

| F#m9  Abm7(4) | Fm7  Bbm7 | Ebm7 | Ebm7/Ab |



 Bas-Mellemspil 1:
  1   +   2   +   3   +   4   +     1   +   2   +   3   +   4   +
|-----------(11-12-13)--------4/6-|-----4---------------------------|
|---------------------------------|--------\4---2---4-3---3---------|
|-4-----4---x-6-7-8---------------|-------------------------4\------|
|---------------------------------|---------------------------------|

|-----6-----(11-12-13)------------|-------------------9--------------|-----:
|---------------------------------|--------------------9h11----------|-----:
|-4-----4---x-6-7-8---------------|------------------------10h11-7h9-|-----:
|---------------------------------|----------------------------------|-9---:



[A]

[B]


 Bas-Mellemspil 2:
  1   +   2   +   3   +   4   +     1   +   2   +   3   +   4   +
|---------------------------------|------x----------4-----4---4-----|
|-------x-------------------------|-------x-------------------------|
|-3/4-x-----x-6-7-8---------------|--------x------------------------|
|---------------------------------|-x-------x-x-x-x-----------------|

|---------------------------------|----11---------------------------|
|-------x-------------------------|---------------------------------|
|-3/4-x-----x-6-7-8---------------|-9-------8-------7-------6-------|
|---------------------------------|---------------------------------|



[C]Bro:
| E7M  (6) | Ebm7(4) | C#(2) |  -  |

| E7M  (6) | Ebm7(4) | Fm7  Bbm7 | Ebm7  Ebm7/Ab |



[B] x3

[B] x1 (keyboard solo)

[B] x1, slut på C#(2)




 AKKORDER
************
Denne sang er i sin fine fulde helhed som sagt ikke ligefrem en lejrbålsang.
Mit bedste bud på at spille disse komplekse harmonier er med (intet mindre end)
capo på 4.bånd + Drop D-tuning.

[A]
    B/C#     C#     F#m9    C#7    Gbm11    Bb11   F#(9)
 |-------|---0---|---0---|---0---|---0---|---0---|---0---|
 |---3---|---2---|---1---|---2---|---1---|---0---|---3---|
 |---4---|---2---|---2---|---0---|---0---|---1---|---2---|
 |---5---|---2---|---3---|---2---|---3---|---2---|---4---|
 |---0---|---0---|---0---|---0---|---0---|---4---|---0---|
 |-------|-------|---0---|-------|---0---|---4---|---0---|

[B]
    F#m9   Abm7(4)  C#7     Bbm7    Fm7     Ebm7  Ebm7/Ab
 |---0---|---0---|---0---|---2---|---4---|---2---|---2---|
 |---1---|---0---|---2---|---2---|---5---|---3---|---3---|
 |---2---|---0---|---0---|---2---|---4---|---2---|---2---|
 |---3---|---0---|---2---|---2---|---6---|---4---|---4---|
 |---0---|---2---|---0---|---4---|---4---|---2---|---2---|
 |---0---|---2---|-------|---4---|-------|-------|---2---|

[C]
  E7M  (6) Ebm7(4) C#(2)
 |---0---|---0---|---0---|
 |---0---|---3---|---2---|
 |---2---|---2---|---4---|
 |---2---|---4---|---2---|
 |---3---|---2---|---0---|
 |-------|-------|-------|


 LYRICS
**********
Mon han bli'r min nu
nu hvor intet kan forhindre
kærligheden i at blomstre ('eah mm-mm oh)

Jeg glemmer min sindsro
vækkes af urolige tanker
mærker kun mit hjerte hamre
mon hun tænker
vi er venner
og aldrig mer' end det (hoh)

[Omkvæd:]
Når hjertet ser sit snit til mer'
af alt det du har uden forsvar
lægger du det her hos mig
blød og parat
til når hjertet ser

Går hun forbi nu
Ser hun mig med lukkede øjne
Ser hun mon hvor nemt det er at gå ind (at gå ind, uh-wuh)

mmm, Bli'r alting let nu
nu hvor ingen døre binder
og holder fast i mine hænder (holder fast i dig)
yeah, mon det hænder
at jeg vinder
ham her i nat (ham her igen i nat)

[Omkvæd]

uh, vilde flamme brænder du for mig
Jeg har ventet her alt for længe,
men overgiver mig let til dig.

[3x Omkvæd]

[instr. Omkvæd] (jeg overgi'r mig let til dig)

[Omkvæd]

+--------------------------------------------------------------------------+
Jon Sebastian Frederiksen - 12th /September /11
Just mail me at Maitinin@gmail.com with questions, comments and corrections!
Добавлено: 26.03.2012
Другие материалы по этой песне:
  • Аккорды и текст

Страница создана 26.03.2012
http://primanota.ru/karen-busck/hjertet-ser-chords.htm
Привет, Гость.
Предлагаем пройти революционный курс по гитаре.
Подарок от PrimaNota.Ru, забирай!