PrimaNota.ru - самый крупный в мире бесплатный архив песенных текстов, аккордов, табулатур и нот


Karel Svoboda - Aschenbrödel - таба, видео

Регистрация Запомнить меня
Войти через:  Facebook Google Twitter Vk Yandex Mail.ru

Karel Svoboda - Aschenbrödel - таба, видео

Печатать
Просмотров: 84
-------------------------------------------------------------------------------
                             Drei Nüsse für Aschenbrödl - Main Theme Intro tab
-------------------------------------------------------------------------------
Tabbed by: Wolfgang Klose
E-mail: k.woli@outlook.com

Tuning: Open G = D-G-d-g-b-d

Capo 2nd



e|--------------0------------------------2---0---------------0----------------------------------------------|
B|--3-------3-------3-------3\1------1-----------0-------3-------0---1---------------0h1/3------------------|
G|------0---------------0--------0-------------------0-0-----------------2---2---2--------------------------|
D|-------------------------------------------------------------------0--------------------------------------|
A|----------------------------------------------------------------------------------------------------------|
E|--0-----------------------0--------------------0---------------------------------------0------------------|


************************************
 When you slide up in the end you begin with the Tab from the start again.


First tab hope you like it. I found it when i played Arthur McBride from Paul Brady. ;)


| \   slide down
| h   hammer-on
Добавлено: 01.01.2016
Другие материалы по этой песне:
  • Аккорды и текст

Страница создана 01.01.2016
http://primanota.ru/karel-svoboda/aschenbrodel-chords.htm
Привет, Гость.
Предлагаем пройти революционный курс по гитаре.
Подарок от PrimaNota.Ru, забирай!