PrimaNota.ru - самый крупный в мире бесплатный архив песенных текстов, аккордов, табулатур и нот


Kardashian Trailer Trash - Whos Vagina Is Scott Banging - бас-таба, видео

Регистрация Запомнить меня
Войти через:  Facebook Google Twitter Vk Yandex Mail.ru

Kardashian Trailer Trash - Whos Vagina Is Scott Banging - бас-таба, видео

Печатать
Просмотров: 21
VERSE:

G|--------------------------------------------|
D|---------7-8--7----7-8--7-------------------|
A|-5--7-8---------8---------8--8--------------|
E|-------------------------------8--0-7-8-0-6-|

G|--------------------------------------|
D|---------7-8--7----7-8--7-------------|
A|-5--7-8---------8---------8--8--------|
E|-------------------------------8--8-8-|

CHORUS:
G|----------------------------------------------------------------------|
D|----------------------------------------------------------------------|
A|-11111111111111111111111111111111-3--------------------------33333333-| 
E|------------------------------------111111111111111111111111----------|
Добавлено: 08.05.2016
Другие материалы по этой песне:
  • Аккорды и текст

Страница создана 08.05.2016
http://primanota.ru/kardashian-trailer-trash/whos-vagina-is-scott-banging-chords.htm
Привет, Гость.
Предлагаем пройти революционный курс по гитаре.
Подарок от PrimaNota.Ru, забирай!