PrimaNota.ru - самый крупный в мире бесплатный архив песенных текстов, аккордов, табулатур и нот


Kardashian Trailer Trash - We Are Famous For Being Famous - бас-таба, видео

Регистрация Запомнить меня
Войти через:  Facebook Google Twitter Vk Yandex Mail.ru

Kardashian Trailer Trash - We Are Famous For Being Famous - бас-таба, видео

Печатать
Просмотров: 14
VERSE:

G|---------------------------------------------------------------------------|
D|---------------------------------------------------------------------------|
A|---------------------------------------------------------------------------|
E|--0000-0--7-7-7--5-5-5/12----0000-0--7-7-7--5-5-5--------------------------|

BRIDGE:

G|---------------------------------------------------------------------------|
D|---------------------------------------------------------------------------|
A|--------------7-7-7--7-7--7---------------7\4------------------------------|
E|---5-5-5-5555---------------5-5-5-5555\2-----------------------------------|

CHORUS:

G|---------------------------------------------------------------------------|
D|---------------------------------------------------------------------------|
A|--7---5-7------5-5------5--------7---5-7------5-5--------------------------|
E|----7-----7--------5-7----5--7------7-----7---------5-7--------------------|
Добавлено: 08.05.2016
Вам также может быть интересно:
Другие материалы по этой песне:
  • Аккорды и текст

Страница создана 08.05.2016
http://primanota.ru/kardashian-trailer-trash/we-are-famous-for-being-famous-chords.htm
Привет, Гость.
Предлагаем пройти революционный курс по гитаре.
Подарок от PrimaNota.Ru, забирай!