PrimaNota.ru - самый крупный в мире бесплатный архив песенных текстов, аккордов, табулатур и нот


Karate - With Age - таба, видео

Регистрация Запомнить меня
Войти через:  Facebook Google Twitter Vk Yandex Mail.ru

Karate - With Age - таба, видео

Печатать
Просмотров: 36
Karate - With Age

Album: Pockets (2004)
Transcribed by: garoto


Intro

---4-----------4----------------------------------|
---5-----7-----4-----7----------------------------|
---4-----6-----4-----6----------------------------|
---6-----5-----6-----5----------------------------|
---4-----6-----6-----6----------------------------|
---4-----6-----4-----6-(x5)-----------------------|
         T           T
       
(T = w/thumb on 6th string)             


Bass

----------------------------------|
------4-----8--9------------------|
---7-----10----------6-6-6-6-6----|
----------------------------------|

Добавлено: 19.09.2015
Другие материалы по этой песне:
  • Аккорды и текст

Страница создана 19.09.2015
http://primanota.ru/karate/with-age-chords.htm
Привет, Гость.
Предлагаем пройти революционный курс по гитаре.
Подарок от PrimaNota.Ru, забирай!