PrimaNota.ru - самый крупный в мире бесплатный архив песенных текстов, аккордов, табулатур и нот


Karate - Last wars - аккорды и текст, таба, видео

Регистрация Запомнить меня
Войти через:  Facebook Google Twitter Vk Yandex Mail.ru

Karate - Last wars - аккорды и текст, таба, видео

Печатать
Просмотров: 74
Last wars
Karate
intro:

-5-------------------5-----|
-5-------------------5-----|
-5-------------------5-----|
-7-------------------------|
-7-------------------------|
-5----5-7-8-7-5-4----------|


----------------|----------3------|----------------|---1-1-1------------------|
-6--6--6--5--6--|-5--5--5--3--5---|-8--8--8--7--6--|---1-1-1------------------|
-7--7--7--5--7--|-5--5--5--4--5---|-9--9--9--8--7--|---2-2-2------------------|
-7--7--7--5--7--|-7--7--7--5--7---|-9--9--9--8--7--|---3-3-3------------------|
-5--5--5--5--5--|-7--7--7-----7---|-7--7--7--6--5--|---3-3-3------------------|
----------------|-5--5--5-----5---|----------------|--------------------------|
C
Wet, cold, late
Am                       G
Let me leave the key because I cannot wait
F                           Am         G
I know I'll find some quiet somewhere near
C
Well, God does not play dice
Am                G            
So I will not need your advice
F                              Am       G
After all I got us this far, I got us here

Dm                                   A/Dm 
Kids come across as solemn and lost, I know old men evoke last wars and holocausts
               G                 F             Dm   G   Am
German kids, Croatian kids just like American kids, we know

Intro
-5-------------------5-----|
-5-------------------5-----|
-5-------------------5-----|
-7-------------------------|
-7-------------------------|
-5----5-7-8-7-5-4----------|

----------------|----------3------|----------------|---1-1-1------------------|
-6--6--6--5--6--|-5--5--5--3--5---|-8--8--8--7--6--|---1-1-1------------------|
-7--7--7--5--7--|-5--5--5--4--5---|-9--9--9--8--7--|---2-2-2------------------|
-7--7--7--5--7--|-7--7--7--5--7---|-9--9--9--8--7--|---3-3-3------------------|
-5--5--5--5--5--|-7--7--7-----7---|-7--7--7--6--5--|---3-3-3------------------|
----------------|-5--5--5-----5---|----------------|--------------------------|

C
We only give the sweetest looks
Am                G         
And we only steal from the greatest books
F                                Am   G
Just use one sentence and insert your name
      C
We should not be ashamed
Am                       G                                
The bed is in the ocean while guns are on the trains
F                                    Am        G
Just pick a destination and you can sign your name

Dm                                    A/Dm
Kids come across as solemn and lost, I know old men evoke last wars and holocausts
         G                            F        Dm    G   Am
German kids, Croatian kids just like American kids, they know

Intro
-5-------------------5-----|
-5-------------------5-----|
-5-------------------5-----|
-7-------------------------|
-7-------------------------|
-5----5-7-8-7-5-4----------| 

----------------|----------3------|----------------|---1-1-1------------------|
-6--6--6--5--6--|-5--5--5--3--5---|-8--8--8--7--6--|---1-1-1------------------|
-7--7--7--5--7--|-5--5--5--4--5---|-9--9--9--8--7--|---2-2-2------------------|
-7--7--7--5--7--|-7--7--7--5--7---|-9--9--9--8--7--|---3-3-3------------------|
-5--5--5--5--5--|-7--7--7-----7---|-7--7--7--6--5--|---3-3-3------------------|
----------------|-5--5--5-----5---|----------------|--------------------------|


For the solo use the Intro Chords.
Добавлено: 19.09.2015
Другие материалы по этой песне:
  • Аккорды и текст

Страница создана 25.02.2014
http://primanota.ru/karate/last-wars-chords.htm
Привет, Гость.
Предлагаем пройти революционный курс по гитаре.
Подарок от PrimaNota.Ru, забирай!