PrimaNota.ru - самый крупный в мире бесплатный архив песенных текстов, аккордов, табулатур и нот


Karate High School - Good New And Bad News - таба, видео

Регистрация Запомнить меня
Войти через:  Facebook Google Twitter Vk Yandex Mail.ru

Karate High School - Good New And Bad News - таба, видео

Печатать
Просмотров: 122
Уроки эстрадного вокала в Санкт-Петербурге
Here are the tabs for the acoustic version of "Good News and Bad News." I did this as
as I can, so there might be a few errors here or there. In other words, if you find
wrong, deal with it. Also, the formatting in Myspace blogs is absolutely atrocious, so 
have to excuse some of the lame spacing. I have way more important things to do than fix
such as finish watching the season finale of The O.C. Seriously, did Seth's mom 
have that kid? LAME.

ANYways, here's something for you to play around the campfire. Rock on, dudes and dudettes.

Acoustic Guitar

Tuning: Drop D, DADGBe

INTRO

e|--------------------------|
B|--------------------------|
G|--------------------------|
D|-------7----------9-------|
A|----5----------7----------|
D|-5----------7-------------| x2

Play these notes with some simple strumming between notes. Nuthin' fancy.

VERSE

Fig. 1                                                                             Fig. 2

E|-5-5-5-5-2-2-2-2-------------------------------|        |-----------------------|
B|-0-0-0-0-3-3-3-3-0-0-0-0-----------------------|         |----------------------|
G|-0-0-0-0-2-2-2-2-2-2-2-2-----------------------|         |----------------------|
D|-5-5-5-5-0-0-0-0-2-2-2-2-----------------------|         |----------------------|
A|-5-5-5-5-----------0-0-0-0--0-0-0-0-0-0-0-0----|         |-0-0-0-0-0-0-0-0------|
D|-5-5-5-5---------------------5-5-7-7-5-5-7-7--| x2      |-5-5-7-7-9-9-7-7-------|

Keep goofing around until the strumming sounds right. Play Fig. 2 at the end of the verse.

CHORUS RIFF

E|--0--0--0--0--0--0--0--0--0----xx--0--0--0--0--0--0--0--0--0-xx------|
B|--0--0- 0--0--0--0--0--0---0----xx--0--0--0--0--0--0--0--0--0-xx-----|
G|--11-11-11-11-11-11-11-11-11-xx--9--9--9--9--9--9--9--9--9-xx--------|
D|--11-11-11-11-11-11-11-11-11-xx--9--9--9--9--9--9--9--9--9-xx--------|
A|--9---9--9--9--9--9--9---9--9--xx--7--7--7--7--7--7--7--7--7-xx------|
D|--9---9--9--9--9--9--9---9--9--xx--7--7--7--7--7--7--7--7--7-xx------|

e|--2--2--2--2--2--3--2--2--3--2--2--3--2--------------------------------------------|
B|--3--3--3--3--3--3--3--3--3--3--3--3--3---------5-5-5-7-5---------5-5-5-7-5--------|
G|--2--2--2--2--2--2--2--2--2--2--2--2--2--7-7-7-0-0-0-0-0-7-7-7-0-0-0-0-0-----------|
D|--0--0--0--0--0--0--0--0--0--0--0--0--0--0-0-0-------------0-0-0-------------------|
A|--0--0--0--0--0--0--0--0--0--0--0--0--0--------------------------------------------|
D|--0--0--0--0--0--0--0--0--0--0--0--0--0--------------------------------------------| x2

These are the basic notes, just play around until you have the exact timing and 
down.

END CHORUS RIFF, INTO BRIDGE

e|-------------------------------------------------------------------------------|
B|----------5-5-5-7-5-------5-5-5-7-7-8-8-8-7-7-7-5-5------ -5-5-5-7-5-----------|
G|--7-7-7-0-0-0-0-0-7-7-7-0-0-0-0-0-0-0-0-0-0-0-0-0-7-7-7-0-0-0-0-0--------------|
D|--0-0-0-------------0-0-0--------------------------------0-0-0-----------------|
A|-------------------------------------------------------------------------------|
D|-------------------------------------------------------------------------------|

Easy as pie.

BRIDGE

Guitar 1

e|-------------------------------------------------------------------------|
B|-------------------------------------------------------------------------|
G|-11-11-11-11-11--9--9--9--9--9--7--7--7--7--7--9--9--9--9--9-------------|
D|-11-11-11-11-11--9--9--9--9--9--7--7--7--7--7--9--9--9--9--9-------------|
A|--9--9--9--9--9----7--7--7--7--7--5--5--5--5--5--7--7--7--7--7-----------|
D|--9--9--9--9--9----7--7--7--7--7--5--5--5--5--5--7--7--7--7--7-----------|x3

Guitar 2

e|---------------------------------------|
B|---------------------------------------|
G|---------------------------------------|
D|-----------------7-7-7-----------------|
A|-------7-7-7-9-9-------9-9-9-7-7-------|
D|-7-7-7---------------------------------|

If you have two guitar players, just keep playing these notes over the first bridge riff.


AFTER BRIDGE, PLAY THESE CHORDS:

E|-0----------2-------|
B|-0----0----3--------|
G|-4----2----2--------|
D|-4----2----0--------|
A|-2----0-------------|
D|--------------------|

Enjoy!
Добавлено: 08.04.2012
Другие материалы по этой песне:
  • Аккорды и текст

Страница создана 08.04.2012
http://primanota.ru/karate-high-school/good-new-and-bad-news-chords.htm
Привет, Гость.
Предлагаем пройти революционный курс по гитаре.
Подарок от PrimaNota.Ru, забирай!