PrimaNota.ru - самый крупный в мире бесплатный архив песенных текстов, аккордов, табулатур и нот


Karate Chop Avalanche - Woah Oh - текст песни, таба, видео

Регистрация Запомнить меня
Войти через:  Facebook Google Twitter Vk Yandex Mail.ru

Karate Chop Avalanche - Woah Oh - текст песни, таба, видео

Печатать
Просмотров: 75
Gtr I (E A D G B E) - 'Guitar I'
Gtr II (E A D G B E) - 'Guitar II'


 Intro
  Q=180
 4/4
  Gtr I
  PM------------------------------------------------------------------|
  E E E E E E E E   E E E E E E E E   E E E E E E E E   E E E E E E E E
|-----------------|-----------------|-----------------|------------------|
|-----------------|-----------------|-----------------|------------------|
|-----------------|-----------------|-----------------|------------------|
|-----------------|-5-5-5-5-5-5-5-5-|-----------------|-7-7-7-7-7-7-7-7--|
|-5-5-5-5-5-5-5-5-|-3-3-3-3-3-3-3-3-|-7-7-7-7-7-7-7-7-|-5-5-5-5-5-5-5-5--|
|-3-3-3-3-3-3-3-3-|-----------------|-5-5-5-5-5-5-5-5-|------------------|


  Gtr I
  PM------------------------------------------------------------------|
  E E E E E E E E   E E E E E E E E   E E E E E E E E   E E E E E E E E
|-----------------|-----------------|-----------------|-----------------|
|-----------------|-----------------|-----------------|-----------------|
|-----------------|-----------------|-----------------|-----------------|
|-----------------|-5-5-5-5-5-5-5-5-|-----------------|-7-7-7-7-7-7-7-7-|
|-5-5-5-5-5-5-5-5-|-3-3-3-3-3-3-3-3-|-7-7-7-7-7-7-7-7-|-5-5-5-5-5-5-5-5-|
|-3-3-3-3-3-3-3-3-|-----------------|-5-5-5-5-5-5-5-5-|-----------------|


  Gtr I
  PM------------------------------------------------------------------------|
  E  E E E E E E E    E  E E E  E E E E    E  E E E E E E E   E E E E E E E E
|------------------|--------------------|-------------------|-----------------|
|------------------|--------------------|-------------------|-----------------|
|------------------|--------------------|-------------------|-----------------|
|------------------|--5--5-5-5--5-5-5-5-|-------------------|-7-7-7-7-7-7-7-7-|
|-5--5-5-5-5-5-5-5-|--3--3-3-3--3-3-3-3-|--7--7-7-7-7-7-7-7-|-5-5-5-5-5-5-5-5-|
|-3--3-3-3-3-3-3-3-|--------------------|--5--5-5-5-5-5-5-5-|-----------------|
|
| Gtr II
| H.           E E   +Q    E Q. E E       +W                  W
|------------------|--------------------|-------------------|-----------------|
|------------------|--------------------|-------------------|-----------------|
|------------------|--------------------|-------------------|-----------------|
|------------------|--------------------|-------------------|-----------------|
|-2------------3-2-|-(2)---3-2--3-2-----|-(2)---------------|-5---------------|
|------------------|--------------------|-------------------|-----------------|


  Gtr I
  PM------------------------------------------------------------------------|
  E  E E E E E E E    E  E E E  E E E E    E  E E E E E E E   E E E E E E E E
|------------------|--------------------|-------------------|-----------------|
|------------------|--------------------|-------------------|-----------------|
|------------------|--------------------|-------------------|-----------------|
|------------------|--5--5-5-5--5-5-5-5-|-------------------|-7-7-7-7-7-7-7-7-|
|-5--5-5-5-5-5-5-5-|--3--3-3-3--3-3-3-3-|--7--7-7-7-7-7-7-7-|-5-5-5-5-5-5-5-5-|
|-3--3-3-3-3-3-3-3-|--------------------|--5--5-5-5-5-5-5-5-|-----------------|
|
| Gtr II
| H.           E E   +Q    E Q.     E E   +W                  W
|------------------|--------------------|-------------------|-----------------|
|------------------|--------------------|-------------------|-----------------|
|------------------|--------------------|-------------------|-----------------|
|------------------|--------------------|-------------------|-----------------|
|-2------------3-2-|-(2)---3-2------3-2-|-(2)---------------|-0---------------|
|------------------|--------------------|-------------------|-----------------|


   Verse I
    Gtr I
    PM------------------------------------------------|
    E E E E E E E E   E E E E E E E E   E E E E E E E E
||------------------|-----------------|--------------------|
||o-----------------|-----------------|--------------------|
||------------------|-----------------|--------------------|
||------------------|-5-5-5-5-5-5-5-5-|--------------------|
||o-5-5-5-5-5-5-5-5-|-3-3-3-3-3-3-3-3-|-7-7-7-7-7-7-7-7----|
||--3-3-3-3-3-3-3-3-|-----------------|-5-5-5-5-5-5-5-5----|


  Gtr II
  PM------------|
  E E E E E E E E     4x
|---------------------||
|--------------------o||
|---------------------||
|-7-7-7-7-7-7-7-7-----||
|-5-5-5-5-5-5-5-5----o||
|---------------------||


   Chorus I
    Q=180(8=s8)
    Gtrs I, II
    Q  E Q  E Q    Q  E Q  E Q    Q  E Q  E Q    Q  E Q  E Q  4x
||---------------|--------------|--------------|--------------||
||o--------------|--------------|--------------|-------------o||
||---------------|-5--5-5--5-5--|--------------|-7--7-7--7-7--||
||--5--5-5--5-5--|-5--5-5--5-5--|-7--7-7--7-7--|-7--7-7--7-7--||
||o-5--5-5--5-5--|-3--3-3--3-3--|-7--7-7--7-7--|-5--5-5--5-5-o||
||--3--3-3--3-3--|--------------|-5--5-5--5-5--|--------------||


 Pre-Verse II
  Q=180
  Gtr I
  PM-|   PM|   PM     PM-|   PM-|   PM     PM-|   PM|   PM    PM|   PM|   PM
  E  E E E E E E E    E  E E E  E E E E    E  E E E E E E E   E E E E E E E E
|------------------|--------------------|-------------------|-----------------|
|------------------|--------------------|-------------------|-----------------|
|------------------|-------5------5---5-|-------------------|-----7-----7---7-|
|------5-----5---5-|--5--5-5-5--5-5-5-5-|-------7-----7---7-|-7-7-7-7-7-7-7-7-|
|-5--5-5-5-5-5-5-5-|--3--3-3-3--3-3-3-3-|--7--7-7-7-7-7-7-7-|-5-5-5-5-5-5-5-5-|
|-3--3-3-3-3-3-3-3-|--------------------|--5--5-5-5-5-5-5-5-|-----------------|
|
| Gtr II
| H.           E E   +Q    E Q.     E E   +W                  W
|------------------|--------------------|-------------------|-----------------|
|------------------|--------------------|-------------------|-----------------|
|------------------|--------------------|-------------------|-----------------|
|------------------|--------------------|-------------------|-----------------|
|-2------------3-2-|-(2)---3-2------3-2-|-(2)---------------|-5---------------|
|------------------|--------------------|-------------------|-----------------|


     Gtr I
  PM-|   PM|   PM     PM-|   PM-|   PM     PM-|   PM|   PM    PM|   PM|   PM
  E  E E E E E E E    E  E E E  E E E E    E  E E E E E E E   E E E E E E E E
|------------------|--------------------|-------------------|-----------------|
|------------------|--------------------|-------------------|-----------------|
|------------------|-------5------5---5-|-------------------|-----7-----7---7-|
|------5-----5---5-|--5--5-5-5--5-5-5-5-|-------7-----7---7-|-7-7-7-7-7-7-7-7-|
|-5--5-5-5-5-5-5-5-|--3--3-3-3--3-3-3-3-|--7--7-7-7-7-7-7-7-|-5-5-5-5-5-5-5-5-|
|-3--3-3-3-3-3-3-3-|--------------------|--5--5-5-5-5-5-5-5-|-----------------|
|
| Gtr II
| H.           E E   +Q    E Q.     E E   +W                  W
|------------------|--------------------|-------------------|-----------------|
|------------------|--------------------|-------------------|-----------------|
|------------------|--------------------|-------------------|-----------------|
|------------------|--------------------|-------------------|-----------------|
|-2------------3-2-|-(2)---3-2------3-2-|-(2)---------------|-0---------------|
|------------------|--------------------|-------------------|-----------------|


   Verse II
    Gtr I
    PM------------------------------------------------|
    E E E E E E E E   E E E E E E E E   E E E E E E E E
||------------------|-----------------|--------------------|
||o-----------------|-----------------|--------------------|
||------------------|-----------------|--------------------|
||------------------|-5-5-5-5-5-5-5-5-|--------------------|
||o-5-5-5-5-5-5-5-5-|-3-3-3-3-3-3-3-3-|-7-7-7-7-7-7-7-7----|
||--3-3-3-3-3-3-3-3-|-----------------|-5-5-5-5-5-5-5-5----|


  Gtr I
  PM------------|
  E E E E E E E E     3x
|---------------------||
|--------------------o||
|---------------------||
|-7-7-7-7-7-7-7-7-----||
|-5-5-5-5-5-5-5-5----o||
|---------------------||


  Gtr I
  PM------------------------------|
  E E E E E E E E   E E E E E E E E   E H.      E   W
|-----------------|-----------------|-------------|------|
|-----------------|-----------------|-------------|------|
|-----------------|-----------------|-------------|------|
|-----------------|-5-5-5-5-5-5-5-5-|-------------|------|
|-5-5-5-5-5-5-5-5-|-3-3-3-3-3-3-3-3-|-7-----------|------|
|-3-3-3-3-3-3-3-3-|-----------------|-5-----------|------|


   Chorus II
    Q=180(8=s8)
    Gtrs I, II
    Q  E Q  E Q    Q  E Q  E Q    Q  E Q  E Q    Q  E Q  E Q  4x
||---------------|--------------|--------------|--------------||
||o--------------|--------------|--------------|-------------o||
||---------------|-5--5-5--5-5--|--------------|-7--7-7--7-7--||
||--5--5-5--5-5--|-5--5-5--5-5--|-7--7-7--7-7--|-7--7-7--7-7--||
||o-5--5-5--5-5--|-3--3-3--3-3--|-7--7-7--7-7--|-5--5-5--5-5-o||
||--3--3-3--3-3--|--------------|-5--5-5--5-5--|--------------||


 Bridge
  Gtr I
  E  E  E  E  E  E  E  E    E  E  E  E  E  E  E  E
|-------------------------|-------------------------|
|-------------------------|-------------------------|
|-------------------------|-5-----5-----5-----5-----|
|-5-----5-----5-----5-----|-5-----5-----5-----5-----|
|-5-----5-----5-----5-----|-3-----3-----3-----3-----|
|-3-----3-----3-----3-----|-------------------------|
|
| Gtr II
| E +E  E +E  E +E  E +E    E +E  E +E  E +E  E +E
|-------------------------|-------------------------|
|-------------------------|-------------------------|
|-------------------------|-5-(5)-5-(5)-5-(5)-5-(5)-|
|-5-(5)-5-(5)-5-(5)-5-(5)-|-5-(5)-5-(5)-5-(5)-5-(5)-|
|-5-(5)-5-(5)-5-(5)-5-(5)-|-3-(3)-3-(3)-3-(3)-3-(3)-|
|-3-(3)-3-(3)-3-(3)-3-(3)-|-------------------------|


  E  E  E  E  E  E  E  E    E  E  E  E  E E E E
|-------------------------|---------------------|
|-------------------------|---------------------|
|-------------------------|-7-----7-----7---7---|
|-7-----7-----7-----7-----|-7-----7-----7---7---|
|-7-----7-----7-----7-----|-5-----5-----5---5---|
|-5-----5-----5-----5-----|---------------------|
|
|                                       |-3-|
| E +E  E +E  E +E  E +E    E +E  E +E  E E E Q
|-------------------------|---------------------|
|-------------------------|---------------------|
|-------------------------|-7-(7)-7-(7)-7-7-7-7-|
|-7-(7)-7-(7)-7-(7)-7-(7)-|-7-(7)-7-(7)-7-7-7-7-|
|-7-(7)-7-(7)-7-(7)-7-(7)-|-5-(5)-5-(5)-5-5-5-4-|
|-5-(5)-5-(5)-5-(5)-5-(5)-|---------------------|


  Gtr I
  E  E  E  E  E  E  E  E    E  E  E  E  E  E  E  E
|-------------------------|-------------------------|
|-------------------------|-------------------------|
|-------------------------|-5-----5-----5-----5-----|
|-5-----5-----5-----5-----|-5-----5-----5-----5-----|
|-5-----5-----5-----5-----|-3-----3-----3-----3-----|
|-3-----3-----3-----3-----|-------------------------|
|
| Gtr II
| E +E  E +E  E +E  E +E    E +E  E +E  E +E  E +E
|-------------------------|-------------------------|
|-------------------------|-------------------------|
|-------------------------|-5-(5)-5-(5)-5-(5)-5-(5)-|
|-5-(5)-5-(5)-5-(5)-5-(5)-|-5-(5)-5-(5)-5-(5)-5-(5)-|
|-5-(5)-5-(5)-5-(5)-5-(5)-|-3-(3)-3-(3)-3-(3)-3-(3)-|
|-3-(3)-3-(3)-3-(3)-3-(3)-|-------------------------|


  E  E  E  E  E  E  E  E    E  E  E  E  E E E
|-------------------------|-------------------------|
|-------------------------|-------------------------|
|-------------------------|-7-----7-----7---7-------|
|-7-----7-----7-----7-----|-7-----7-----7---5-------|
|-7-----7-----7-----7-----|-5-----5-----5---5-------|
|-5-----5-----5-----5-----|-------------------------|
|
|                                       |-3-| |-3-|
| E +E  E +E  E +E  E +E    E +E  E +E  E E E E E E
|-------------------------|-------------------------|
|-------------------------|-------------------------|
|-------------------------|-7-(7)-7-(7)-x-x-x-x-x-x-|
|-7-(7)-7-(7)-7-(7)-7-(7)-|-7-(7)-7-(7)-x-x-x-x-x-x-|
|-7-(7)-7-(7)-7-(7)-7-(7)-|-5-(5)-5-(5)-x-x-x-x-x-x-|
|-5-(5)-5-(5)-5-(5)-5-(5)-|-------------------------|


  Gtr I
  E E E E E E E E    E  E E E E E E E    E   E E  E E E E E   E  E E E E  E E
|-----------------|-------------------|---------------------|------------------|
|-----------------|-------------------|---------------------|------------------|
|-----------------|--5----5---5---5---|---------------------|-7----7---7----7--|
|-5---5---5---5---|--5----5---5---5---|--7-----7----7---7---|-7----7---7----7--|
|-5---5---5---5---|--3----3---3---3---|--7-----7----7---7---|-5----5---5----5--|
|-3---3---3---3---|-------------------|--5-----5----5---5---|------------------|
|
| Gtr II
|       ~       ~           ~       ~
| E E E Q   E E E   +E  E E Q   E E E   +E   E Q.     E E E   Q  Q   E Q  E
|-----------------|-------------------|---------------------|-8--7-------------|
|---5-8-5---5-8-5-|-(5)-5-8-5---5-8-5-|-(5)\----------5-8-5-|--------8-5-------|
|-----------------|-------------------|---------------------|-------------7----|
|-----------------|-------------------|---------------------|------------------|
|-----------------|-------------------|---------------------|------------------|
|-----------------|-------------------|---------------------|------------------|


  Gtr I
   E  E E E E E E E    E  E E E E E E E
|-------------------|-------------------|
|-------------------|-------------------|
|-------------------|--5----5---5---5---|
|--5----5---5---5---|--5----5---5---5---|
|--5----5---5---5---|--3----3---3---3---|
|--3----3---3---3---|-------------------|
|
| Gtr II
|         ~       ~           ~       ~
| +E  E E Q   E E E   +E  E E Q   E E E
|-------------------|-------------------|
|-----5-8-5---5-8-5-|-(5)-5-8-5---5-8-5-|
|-(7)---------------|-------------------|
|-------------------|-------------------|
|-------------------|-------------------|
|-------------------|-------------------|


   E   E E  E E E E E   E E E E E E E
|---------------------|-------------------|
|---------------------|-------------------|
|---------------------|-7---7---7---7-----|
|--7-----7----7---7---|-7---7---7---7-----|
|--7-----7----7---7---|-5---5---5---5-----|
|--5-----5----5---5---|-------------------|
|
| +E   E Q.     E E E   Q   Q   E Q   +E
|---------------------|-8---7-------------|
|-(5)\----------5-8-5-|---------8-5---(5)-|
|---------------------|-------------------|
|---------------------|-------------------|
|---------------------|-------------------|
|---------------------|-------------------|


 Breakdown
  Q=180
  Gtr I
  W          +H.  +E  E    Wx13
|----------|-------------|---------|
|----------|-------------|---------|
|----------|-------------|---------|
|-5--------|-(5)--(5)----|---------|
|-5--------|-(5)--(5)----|---------|
|-3--------|-(3)--(3)----|---------|
|
| Gtr II
| W          +H.  +E  E    Wx13
|----------|-------------|---------|
|-8--------|-(8)--(8)-8\-|---------|
|----------|-------------|---------|
|----------|-------------|---------|
|----------|-------------|---------|
|----------|-------------|---------|


  Gtr I
  H     Q       Q
|-------------------------------------|
|-------------------------------------|
|-------------------------------------|
|------<5>-----<5>--------------------|
|-------x-------x---------------------|
|-------x-------x---------------------|
|
| Gtr II
|           |---3---|   |---3---|
| Q  E  E   E   E   E   E   E   E
|-------------------------------------|
|-------------------------------------|
|-------------------------------------|
|------<5>-<5>-<5>-<5>-<5>-<5>-<5>----|
|------(x)-<5>-<5>-<5>-<5>-<5>-<5>----|
|-----------x---x---x---x---x---x-----|


   Chorus III
    Q=180
    Gtrs I, II
    Q  E Q  E Q    Q  E Q  E Q    Q  E Q  E Q    Q  E Q  E Q  4x
||---------------|--------------|--------------|--------------||
||o--------------|--------------|--------------|-------------o||
||---------------|-5--5-5--5-5--|--------------|-7--7-7--7-7--||
||--5--5-5--5-5--|-5--5-5--5-5--|-7--7-7--7-7--|-7--7-7--7-7--||
||o-5--5-5--5-5--|-3--3-3--3-3--|-7--7-7--7-7--|-5--5-5--5-5-o||
||--3--3-3--3-3--|--------------|-5--5-5--5-5--|--------------||


 Outro
  Gtr I
  H.          Q      H.          Q      H.           Q     H     H
|-----------------|------------------|-------------------|--------------|
|-----------------|------------------|-------------------|--------------|
|-----------------|--5-----------5---|-------------------|-7-----5------|
|-5-----------5---|--5-----------5---|--7------------7---|-7-----5------|
|-5-----------5---|--3-----------3---|--7------------7---|-5-----3------|
|-3-----------3---|------------------|--5------------5---|--------------|
|
| Gtr II
|        ~      ~           ~      ~
| E  E E Q  E E E   +E  E E Q  E E E   +E   E Q.   E E E   Q  Q  E Q  E
|-----------------|------------------|-------------------|-8--7---------|
|----5-8-5--5-8-5-|-(5)-5-8-5--5-8-5-|-(5)\--------5-8-5-|-------8-5----|
|-----------------|------------------|-------------------|------------7-|
|-----------------|------------------|-------------------|--------------|
|-----------------|------------------|-------------------|--------------|
|-----------------|------------------|-------------------|--------------|


   H.          Q      H.          Q      H.           Q     H     H
|------------------|------------------|-------------------|----------------|
|------------------|------------------|-------------------|----------------|
|------------------|--5-----------5---|-------------------|-7-----5--------|
|--5-----------5---|--5-----------5---|--7------------7---|-7-----5--------|
|--5-----------5---|--3-----------3---|--7------------7---|-5-----3--------|
|--3-----------3---|------------------|--5------------5---|----------------|
|
|         ~      ~           ~      ~
| +E  E E Q  E E E   +E  E E Q  E E E   +E   E Q.   E E E   Q  Q  E Q  +E
|------------------|------------------|-------------------|-8--7-----------|
|-----5-8-5--5-8-5-|-(5)-5-8-5--5-8-5-|-(5)\--------5-8-5-|-------8-5--(5)-|
|-(7)--------------|------------------|-------------------|----------------|
|------------------|------------------|-------------------|----------------|
|------------------|------------------|-------------------|----------------|
|------------------|------------------|-------------------|----------------|


  W          Q        H.          W
|----------|---------------|-----------*|
|----------|---------------|-----------*|
|----------|---------------|-----------*|
|-5--------|-5-------------|-----------*|
|-5--------|-5-------------|-----------*|
|-3--------|-3-------------|-----------*|
|
| W          Q        H.          W
|----------|---------------|-----------*|
|-8--------|-8pb8.5r\------|-----------*|
|----------|---------------|-----------*|
|----------|---------------|-----------*|
|----------|---------------|-----------*|
|----------|---------------|-----------*|




--------------------------------------------------------------------------------


Duration Legend
---------------
W - whole; H - half; Q - quarter; E - 8th; S - 16th; T - 32nd; X - 64th; a - acciaccatura
+ - note tied to previous; . - note dotted; .. - note double dotted
Uncapitalized letters represent notes that are staccato (1/2 duration)
Irregular groupings are notated above the duration line
Duration letters will always appear directly above the note/fret number it represents the
duration for.  Duration letters with no fret number below them represent rests.  Multi-
bar rests are notated in the form Wxn, where n is the number of bars to rest for.  Low
melody durations appear below the staff

Tablature Legend
----------------
 h   - hammer-on
 p   - pull-off
 b   - bend
 pb  - pre-bend
 r   - bend release (if no number after the r, then release immediately)
 /\  - slide into or out of (from/to "nowhere")
 s   - legato slide
 S   - shift slide
 - natural harmonic
[n]  - artificial harmonic
n(n) - tapped harmonic
 ~   - vibrato
 tr  - trill
 T   - tap
 TP  - trem. picking
 PM  - palm muting
\n/  - tremolo bar dip; n = amount to dip
 \n  - tremolo bar down
 n/  - tremolo bar up
/n\  - tremolo bar inverted dip
 =   - hold bend; also acts as connecting device for hammers/pulls
 <> - volume swell (louder/softer)
 x   - on rhythm slash represents muted slash
 o   - on rhythm slash represents single note slash

Misc Legend
-----------
 |  - bar
||  - double bar
||o - repeat start
o|| - repeat end
*|  - double bar (ending)
 :  - bar (freetime)
 $  - Segno
 &  - Coda
Tempo markers -  = BPM(8/16=s8/s16), where s8 = swing 8ths, s16 = swing 16ths



--------------------------------------------------------------------------------


Добавлено: 16.07.2012
Другие материалы по этой песне:

Страница создана 01.03.2012
http://primanota.ru/karate-chop-avalanche/woah-oh-chords.htm
Привет, Гость.
Предлагаем пройти революционный курс по гитаре.
Подарок от PrimaNota.Ru, забирай!