PrimaNota.ru - самый крупный в мире бесплатный архив песенных текстов, аккордов, табулатур и нот


Karas Flowers - Untitled - бас-таба, видео

Регистрация Запомнить меня
Войти через:  Facebook Google Twitter Vk Yandex Mail.ru

Karas Flowers - Untitled - бас-таба, видео

Печатать
Просмотров: 126
Untitled by Kara's Flowers
From their album, ...We Like Digging?
Tabbed by Norman

(Intro)
      [0:03]                   [0:14]
G -----------------------------(19)-------------------|
D ----------------------------------------------------|
A ----(12)----8--8-7--7h8p7-5----------8--88-7--7h8p7-|
D ----------------------------------------------------|

  [0:21]                                             [0:32]
G ------------------------------------------------------------------(19)----|
D -444-5--/7--/9----444-5--/7--/9----444-5--/7--/9----444-5--4--------------|
A -------------------------------------------------------------5------------|
D --------------------------------------------------------------------------|

  [0:41]
G ----------7----------7----------5----------5----------7----------7----------5----|
D ------5h7--------5h7--------3h5--------3h5--------5h7--------5h7--------3h5------|
A -5--5-------5--5-------3--3-------3--3-------5--5-------5--5-------3--3-------3--|
D ---------------------------------------------------------------------------------|


(Verse 1)
  [0:56]                                 [1:04]
G ----------------------7---------7----------------------------7---------7-------|
D -7--7-7p6-5--5-5p0--------------------5-7--7-7p6-5--5-5p0--------------------5-|
A -------------------5--------------5-8---------------------5--------------5-8---|
D ------------------------0-3-2-0--------------------------------0-3-2-0---------|


G ----------------------7---------7----------------------------|
D -7--7-7p6-5--5-5p0--------------------5-7--7-7p6-5--5-5p0----|
A -------------------5--------------5-8---------------------5--|
D ------------------------0-3-2-0------------------------------|

   [1:28]    [1:31]
G ------7-----7------7--7------7-----|
D --5h7----------5h7-------5h7---7-5-|
A -----------------------------------|
D -----------------------------------|


(Chorus)
 [1:38}
G ------------------------------------------------------------|
D ------------------------------------------------------------|
A ------------------------------------------------------------|
D -0--3-0-5-3--00--3-0-5-3-33----0--3-0-5-3--00--3-0-5-3-33---|

G ------------------------------------------------------------|
D ------------------------------------------------------------|
A ------------------------------------------------------------|
D -0--3-0-5-3--00--3-0-5-3-33----0--3-0-5-3--00--3-0-5-3-33---|


(Link)
  [1:54]
G --------7---------5--------5----------7--------7--------5--------|
D ----5h7-------3h5------3h5--------5h7------5h7------3h5----------|
A -----------3--------3--------5--5-------5--------3----------3-3--|
D -----------------------------------------------------------------|


(Verse 2)
  [2:10]
G ----------------------7---------7----------------------------7---------7------|
D -7--7-7p6-5--5-5p0--------------------5-7--7-7p6-5--5-5p0---------------------|
A -------------------5--------------5-8---------------------5--------------5----|
D ------------------------0-3-2-0--------------------------------0-3-2-0--------|

  [2:25]
G ----------------------7---------7---------------------------------------|
D -7--7-7p6-5--5-5p0--------------------5-7--7-7p6-5--5-5-----------------|
A -------------------5--------------5-8-------------------55555555555555--|
D ------------------------0-3-2-0-----------------------------------------|

  [2:39]                                   [2:47]
G --------------------------------------------------------------------------------|
D ---------------------5-55--55-------------------------------5-55--55------------|
A -5-55--55--7-77--77-----------9-99-0-3-4-5-55--55--7-77--77----------9-99-0-3-4-|
D --------------------------------------------------------------------------------|


(Chorus)
 [2:54]
G ------------------------------------------------------------|
D ------------------------------------------------------------|
A ------------------------------------------------------------|
D -0--3-0-5-3--00--3-0-5-3-33----0--3-0-5-3--00--3-0-5-3-33---|

 [3:02]
G ---------------------------------------------------------------|
D ---------------------------------------------------------------|
A ---------------------------------------------------------------|
D -0--3-0-5-3--00--3-0-5-3-33----0--3-0-5-3--00--3-0-5-3-33--0---|


(Outro]
 [3:12]                [3:20]
G -(7)-------7----------------7----------7-------(19)-----|
D -------------5h7--------5h7-------7------7--------------|
A --------5--------5----5--------5----5-------5-----------|
D --------------------------------------------------------|

*the rest is about 9 minutes of the same improv. Basically repeats the verse line. 
That's about it.
Добавлено: 30.05.2015
Другие материалы по этой песне:
  • Аккорды и текст

Страница создана 30.05.2015
http://primanota.ru/karas-flowers/untitled-chords.htm
Привет, Гость.
Предлагаем пройти революционный курс по гитаре.
Подарок от PrimaNota.Ru, забирай!