PrimaNota.ru - самый крупный в мире бесплатный архив песенных текстов, аккордов, табулатур и нот


Karas Flowers - These Days - таба, видео

Регистрация Запомнить меня
Войти через:  Facebook Google Twitter Vk Yandex Mail.ru

Karas Flowers - These Days - таба, видео

Печатать
Просмотров: 104
These Days by Kara's Flowers
A song they only played live from 1999 to 2000
Tabbed by Norman
*I'll be sort of blending Jesse and Adam's guitar together*


(Intro)
     D  D U                D  D U
e|---2--2-2----------------2--2-2--------|
B|---3--3-3----------------3--3-3------3-|
G|---2--2-2----------------2--2-2----2---|
D|-0-0--0-0-/4--4-4-2-0--0-0--0-0-/4-----|
A|---------------------------------------|
E|---------------------------------------|

     D  D U
e|---2--2-2---------------------------------------2-|
B|---3--3-3-------------------3-------------------3-|
G|---2--2-2---------------2-4----2h4p2--------2h4-2-|
D|-0-0--0-0-/4--4-4-2-0----------------4-2--------0-|
A|-----------------------------------------5--------|
E|--------------------------------------------------|

     D  D U D U                D  D U D U
e|---2--2-2-2-2----------------2--2-2-2-2--------|
B|---3--3-3-3-3----------------3--3-3-3-3------3-|
G|---2--2-2-2-2----------------2--2-2-2-2----2---|
D|-0-0--0-0-0-0-/4--4-4-2-0--0-0--0-0-0-0-/4-----|
A|-----------------------------------------------|
E|-----------------------------------------------|

     D  D U D U
e|---2--2-2-2-2---------------------------------------2-|
B|---3--3-3-3-3-------------------3-------------------3-|
G|---2--2-2-2-2---------------2-4----2h4p2--------2h4-2-|
D|-0-0--0-0-0-0-/4--4-4-2-0----------------4-2--------0-|
A|---------------------------------------------5--------|
E|------------------------------------------------------|

(Solo)
e|-----------------------------------------------------------------------------------------------|
B|------3----------------------------------------------------------------------------------------|
G|-3h4----5-4-3-----------------5p4----------------------------7-------------------------5-5p4p0-|
D|--------------5-----4-7-5--/5-----x----5--5---------7-5-7-/9---9p7-----0h5--5-7-5--5h7---------|
A|----------------5-7-----------------/7-----6-6--6------------------5-7-------------------------|
E|-----------------------------------------------------------------------------------------------|

e|------------------------------|
B|------------------------------|
G|--------5---------------------|
D|----5---------------5-7-/9----|
A|-/7-------6-6--6--------------|
E|------------------------------|

(Radiohead-esque Break)
*During this part, Adam plays something like this...
e|-----------------------|
B|-----------------------|
G|-----------------------|
D|-9-8--9p8-9-8--8-8h9-8-|
A|-----------------------|
E|-----------------------|

...while Jesse plays the main riff*
e|---------------------------------------|
B|---------------------------------------|
G|---------------------------------------|
D|-----2-----2-----2------2-----2-x-2/4--|
A|---1---x-1---x-1------1---x-1----------|
E|-2------------------2------------------|


(*the verses goes like this, but I'm leaving it as Bm-G to keep it short*)
   D U D U D U D U  D U   D D  D U D D U   D U D
e|--------------------------2--2-2-2---2---2-2-2-|
B|---3-3-3-3-3----2----3----2--2-2-2---2---2-2-2-|
G|---4-4-4-4-4----4----2----0--0-0-0---0---0-0-0-|
D|-4-4-4-4-4-4----4----4----0--0-0-0---0---0-0-0-|
A|-2-2-2-2-2-2--4-4--5-5--2-2--2-2-2-2-2---2-2-2-|
E|------------------------3-3--3-3-3-3-3---3-3-3-|
   Bm         F#sus Dmaj7 G

(Verse 1)
Bm           G                Bm             G                            
Is there any hatred in your heart these days?...
Bm             G              Bm   G                                                       
Is there any violence in your eyes?...
Bm           G             Bm        G                                     
Everybody's looking for a better place...
Bm                  G           Bm    G                                           
For everywhere is a good one in disguise...


Bm - F#sus - Dmaj7 - G (x2)


(Verse 2)
Bm                G           Bm         G  
Someone's waging war on everything I love...
Bm                G              Bm       G  
We're all in the trenches laying low...
  Bm                            G                                                                
A friend of mine walks up to me, whispers in my ear...
                  D                A        Bm                (*how to play*)
"Is this how you pictured it?", and I say "no"...            Bm  D6 Ab   G  F#
            D             A       Bm  D6 Ab G F# (x2)      e|------------3--2--|
"Can you believe it?", and I say "no"...                   B|3---3-------3--2--|
                                                           G|4---4---4---4--3--|
                                                           D|4---4---4---5--4--|
(Chorus)                                                   A|2---0---2---5--4--|
Bm        D6     Em       F#        Bm                     E|--------4---3--2--|
There will be no more turning back...
    D6        Em    F#          Bm                                       
How does it feel to be attacked?...
     D6         Em     F#         G               F#
These days are mine, I want them back..yeah yeah yeah...


(Break)
     D  D U                D  D U
e|---2--2-2----------------2--2-2--------|
B|---3--3-3----------------3--3-3------3-|
G|---2--2-2----------------2--2-2----2---|
D|-0-0--0-0-/4--4-4-2-0--0-0--0-0-/4-----|
A|---------------------------------------|
E|---------------------------------------|

e|---2--2-2------------------------------------------------|
B|---3--3-3------------------------------------------------|
G|---2--2-2---------------------14h15-16p15----------------|
D|-0-0--0-0-/4--4-4-2-0--/15h16-------------16p15-15p14h15-|
A|---------------------------------------------------------|
E|---------------------------------------------------------|

e|-----------------------------------------------------------------3-|
B|-2h3p2-0---0-2-3-/5-/7---7-7-7-7p5-3-2h3p2-------------------------|
G|--------------------------------------------2h4p2-------2---2-4----|
D|--------------------------------------------------4-2-4------------|
A|-------------------------------------------------------------------|
E|-------------------------------------------------------------------|


(Verse 3)                                                                           
Tell me do you think about yourself these days?...
Do you pick yourself up off the ground?...  
A friend of mine walks up to me, whispers in my ear...
     D                   A          Bm  D6  Ab  G  F# (x2)                   
"Sometimes I think we're all going down"...


(Chorus)                                                                     
Bm         D6    Em       F#       Bm     
There will be no more turning back...
    D6       Em     F#           Bm                                       
How does it feel to be attacked?...
      D6       Em      F#        G          F#
These days are mine, I want them back..yeah yeeaahh...

(Chorus)                                                                     
Bm         D6    Em       F#       Bm     
There will be no more turning back...
    D6       Em     F#          Bm                                       
How does it feel to be attacked?...
      D6       Em        F#       G         F#
These days are ours, we want them back..yeeaahhhh....


(Outro)
e|---------------------|
B|---------------------|
G|-7-x-6-x-7-x-6-x-7-9-|
D|-8-x-8-x-8-x-8-x-8-8-|
A|-9-x-9-x-9-x-9-x-9-9-|
E|---------------------|

e|-------------------------------------------------|
B|-3-3-3-3-3-3-3-3-3-3-3-3-3-3-3-3-3-3-3-3-3-3-3-3-|
G|-4-4-4-4-4-4-4-4-4-4-4-4-4-4-4-4-3-3-3-3-3-3-3-3-|
D|-4-4-4-4-4-4-4-4-4-4-4-4-4-4-4-4-3-3-3-3-3-3-3-3-|
A|-2-2-2-2-2-2-2-2-0-0-0-0-0-0-0-0-2-2-2-2-2-2-2-2-|
E|-------------------------------------------------|
Добавлено: 23.10.2015
Другие материалы по этой песне:
  • Аккорды и текст

Страница создана 23.10.2015
http://primanota.ru/karas-flowers/these-days-chords.htm
Привет, Гость.
Предлагаем пройти революционный курс по гитаре.
Подарок от PrimaNota.Ru, забирай!