PrimaNota.ru - самый крупный в мире бесплатный архив песенных текстов, аккордов, табулатур и нот


Karas Flowers - Stable - бас-таба, видео

Регистрация Запомнить меня
Войти через:  Facebook Google Twitter Vk Yandex Mail.ru

Karas Flowers - Stable - бас-таба, видео

Печатать
Просмотров: 145
Уроки эстрадного вокала в Санкт-Петербурге
Stable by Kara's Flowers
From their album, ...We Like Digging?
Tabbed by Norman


Intro/Main Riff:
  {  Repeat 3 times  } {Repeat once}
G ----------------------------------|
D ----------------------------------|
A -0-4-0-5-----------5--------------|
E ---------0-3-5-0-3----2-2-2-1-1-1-|


Verse 1:
G -----------------------------------|
D --------0-0-0-----------0-0-0------|
A -2--2-x-------0--2--2-x------/7----|
E -----------------------------------|

(Verse 1)
Only doubt is survival...
Watch you play my friend...
I'll do defend...
And you can see what's next...


Chorus:
G -------------------------|
D -------------------------|
A -------3--3--------------|
E -3--3--------4--4--1-1-1-|

(Chorus)
What is rain?..
Who knows?..


Verse 2:
G -----------------------------------|
D --------0-0-0-----------0-0-0------|
A -2--2-x-------0--2--2-x------/7----|
E -----------------------------------|

(Verse 2)
What can you hide?..
I can't condone myself...
What is right?..
I'll love myself...


Chorus:
G -------------------------|
D -------------------------|
A -------3--3--------------|
E -3--3--------4--4--1-1-1-|

(Chorus)
What is rain?..
Who knows?..


Main Riff:
  {  Repeat 3 times  } {Repeat once}
G ----------------------------------|
D ----------------------------------|
A -0-4-0-5-----------5--------------|
E ---------0-3-5-0-3----2-2-2-1-1-1-|


Verse 3:
G -----------------------------------|
D --------0-0-0-----------0-0-0------|
A -2--2-x-------0--2--2-x------/7----|
E -----------------------------------|


(Verse 3)
Only doubt is survival...
Watch you play my friend...
I'll do defend...
And you can see what's next...


Guitar Solo:
G -----------------------------------|
D --------0-0-0-----------0-0-0------|
A -2--2-x-------0--2--2-x------/7----|
E -----------------------------------|

Verse 4:
G -----------------------------------|
D --------0-0-0-----------0-0-0------|
A -2--2-x-------0--2--2-x------/7----|
E -----------------------------------|

(Verse 4)
What can you hide?..
I can't condone myself...
What is right?..
I'll love myself...
And what is real?....
Who knows?....
Your emotion in a bottle (bottle)...


Chorus:
G -------------------------|
D -------------------------|
A -------3--3--------------|
E -3--3--------4--4--1-1-1-|

(Chorus)
What is rain?...
Who knows?...


Outro:
  {  Repeat 3 times  } {Repeat once}
G ----------------------------------|
D ----------------------------------|
A -0-4-0-5-----------5--------------|
E ---------0-3-5-0-3----2-2-2-1-1-1-|
Добавлено: 30.05.2015
Другие материалы по этой песне:
  • Аккорды и текст

Страница создана 30.05.2015
http://primanota.ru/karas-flowers/stable-chords.htm
Привет, Гость.
Предлагаем пройти революционный курс по гитаре.
Подарок от PrimaNota.Ru, забирай!