PrimaNota.ru - самый крупный в мире бесплатный архив песенных текстов, аккордов, табулатур и нот


Karas Flowers - Simple Kind Of Lovely - таба, бас-таба, видео

Регистрация Запомнить меня
Войти через:  Facebook Google Twitter Vk Yandex Mail.ru

Karas Flowers - Simple Kind Of Lovely - таба, бас-таба, видео

Печатать
Просмотров: 98
Simple Kind of Lovely by Kara's Flowers
Tabbed by Ramonn
Standard EADGBe Tuning

(Intro) (repeat x2)
    (x8)   (x8)    (x8)    (x8)    (x8)
e|--14------14------14------14------15--------------------|
B|--14------13------14------13------13--------------------|
G|--14------14------14------14------14--------------------|
D|--------------------------------------------------------|

(Intro Solo)
e|---------------------------------------------------------------|
B|---------------------------------------------------------------|
G|---------------------------------------------------------------|
D|---------------2--4---4/7--4-------------4--7--7/10--9--7/4----|
A|--0----2h4--------------------7--3-4--7------------------------|
E|---------------------------------------------------------------|

(Verse 1)
A
Leaning on a tree trunk...
A
Thinking all the same junk...
A                           E
Falling in and out of a dream...
A
Back and forth I'm swaying...
    E
I'm contemplating staying...
A
Laying and decaying...
       E
When I know I must leave...

(Chorus)
D                     A
Where do I aim when I shoot the breeze?..
E                       Db
How do I calm myself at times like these?..
         D
I need a simple kind of lovely...
        A
And the thought is just a novelty...

(Guitar 1)
    (x8)   (x8)    (x8)    (x8)    (x1)
e|--14------14------14------14------15--------------------|
B|--14------13------14------13------13--------------------|
G|--14------14------14------14------14--------------------|
D|--------------------------------------------------------|
A|--------------------------------------------------------|
E|--------------------------------------------------------|

(Guitar 2) (x3)
D|---------------3p2-----|
G|-----------------------|
D|-------------2---------|
A|--0-----2h4------------|
E|-----------------------|

(Verse 2)
A
You can spend the whole time
A
Dangling from a grape vine
A
Standing underneath you
A         E
When they cut you free
A
What about when the sun leaves?
    E
And what about all those bad dreams?
A                           E
Who will walk you back into reality?

(Chorus)
D                                A
I wish things could be like this everyday
E                             Db
But I know that I could never live this way
   D
It was just a simple kind of lovely
                          A
And the memories will be okay

(Guitar Solo)
e|---------------------------------------------------------------|
B|---------------------------------------------------------------|
G|---------------------------------------------------------------|
D|---------------2--4---4/7--4-------------4--7--7/10--9--7/4----|
A|--0----2h4--------------------7--3-4--7------------------------|
E|---------------------------------------------------------------|

e|---------------------------------------------------|
B|---------------------------------------------------|
G|---------------------------------------------------|
D|------------2--4---4/7--4------------4--7--7/10v---|
A|--0----2h4----------------7--3-4--7----------------|
E|---------------------------------------------------|

(2:06)
Don't know the correct tab for this part. Sorry :/

(2:11)
e|--------------------------------------------------------|
B|--------------------------------------------------------|
G|--------------------------------------------------------|
D|------------------------------1--2/4--7v----------------|
A|-------------------0--2/4--7----------------------------|
E|--------------------------------------------------------|

(Chorus)
D                                A
I wish things could be like this everyday
E                             Db
But I know that I could never live this way
              D
It was just a simple kind of lovely
        E                   A
And the memories will be okay
           A
Was just a simple kind of lovely
        E
And the memories will be okay

(Coda)
Eb - A (x3)
    Eb            A          Eb    A
The memories will be okay...
Eb            A
Memories will be okay...

Eb - A (x2)
Добавлено: 22.12.2013
Другие материалы по этой песне:
  • Аккорды и текст

Страница создана 22.12.2013
http://primanota.ru/karas-flowers/simple-kind-of-lovely-chords.htm
Привет, Гость.
Предлагаем пройти революционный курс по гитаре.
Подарок от PrimaNota.Ru, забирай!