PrimaNota.ru - самый крупный в мире бесплатный архив песенных текстов, аккордов, табулатур и нот


Karas Flowers - Need Some Fun - бас-таба, видео

Регистрация Запомнить меня
Войти через:  Facebook Google Twitter Vk Yandex Mail.ru

Karas Flowers - Need Some Fun - бас-таба, видео

Печатать
Просмотров: 97
Need Some Fun by Kara's Flowers
One of their songs from their Room #222 Tape
Tabbed by Norman


(Verse 1):
   G         D         Em        C      G                 D
G --------------------------------------------------------------4-77-----|
D -------------4-7-4------5-789--5-2--------5---------5-----4-7------7-4-|
A ---2-5-2---5-------5-7-------------3----5---5---2-5---3-5--------------|
E -3-------3----------------------------3-------3------------------------|

   G       D       Em      C       G         D       G
G -------------------------------------------------------------|
D -----------4-754---5-789---2-532-------5p2---4-7-4-----5-----|
A ---5-2---5-------7-------3---------2-5-----5---------5---5/--|
E -3-----3-------------------------3-----------------3---------|


(Verse 2):
   G        D        Em     C       G          D
G -----------------------------------------------------------474-|
D -------5/---4-7-4-------------5-2-5--5--5--5---4-7-54---4-7----|
A ---2-5----5-------/7--7-7-3-3----------------5--------5--------|
E -3-------------------------------------------------------------|


G ----------------4---------------------------------------|
D -------5/---4-7---4-----------2532-----5----4-754-------|
A ---2-5----5------------7---3---------5----5-------------|
E -3------------------0----0---------3--------------3-----|


(Solo):
   G     D     Em    C     G     F#    Bm            G     A      D
G --------------------------------------------------------------------------|
D ----------------------------------------------------------------------54--|
A -------5--5--7--7--------------------222222-------------------4-5--5----5-|
E -3--3--------------8--8--3--3--2--2----------2-2-5-3--3--5--5-------------|

   G        D        Em       C
G --------------------------------------|
D --------------------------------------|
A ----------55555555-77777777-----------|
E -33333333-------------------887755-5/-|


(Verse 3):
   G    D    Em   C    G         D        G
G -------------------------------7-7-777-/9--/11--|
D ---5-------------------/5---/5------------------|
A ------5--5-7--7---------------------------------|
E -3--------------8--8-3----3---------------------|

   G    D    Em   C    G    D    G
G ---------------------------------------|
D ---------------------------------------|
A ------5--5-7--7-----------5--5---------|
E -3--3-----------8--8-3--3------3--3--3-|


(Solo):
   G     D     Em    Cm    G       F#    Bm            G     A      D
G --------------------------------------------------------------------------|
D ---------------------------4h5--------------------------------------------|
A -------5--5--7--7----------------------222222-------------------4-5-------|
E -3--3--------------8--8--3-------2--2----------2-2-5-3--3--5--5-----------|


(Bridge):
   D        Bm       D        Bm
G -------------------------------------|
D -------------------------------------|
A -55555555----------55555555----------|
E ----------77777777----------77777777-|

   G        A        Bm
G ----------------------------|
D ----------------------------|
A ----------------------------|
E -33333333-55555555-77777777-|

   G        A        D        G        A        D
G --------------------------------------------------------------|
D --------------------------------------------------------------|
A -------------------55555555-------------------55555555-5--55/-|
E -33333333-55555555----------33333333-55555555-----------------|
Добавлено: 23.10.2015
Другие материалы по этой песне:
  • Аккорды и текст

Страница создана 23.10.2015
http://primanota.ru/karas-flowers/need-some-fun-chords.htm
Привет, Гость.
Предлагаем пройти революционный курс по гитаре.
Подарок от PrimaNota.Ru, забирай!