PrimaNota.ru - самый крупный в мире бесплатный архив песенных текстов, аккордов, табулатур и нот


Karas Flowers - July - аккорды и текст, видео

Регистрация Запомнить меня
Войти через:  Facebook Google Twitter Vk Yandex Mail.ru

Karas Flowers - July - аккорды и текст, видео

Печатать
Просмотров: 82
Уроки эстрадного вокала в Санкт-Петербурге
July
Karas Flowers
July by Kara's Flowers
A live song that performed during the summer/fall of '99
Tabbed by Norman

(Intro)
**of course, there is strumming, but this is just a basic outline to show the 
chord changes and how they are played. the main chord progression is A-F#m-D-E**

   A          G#m F#m          E   D   B   E          A           E
e|-5-------5---4-|-2-------2---0-|-2-2-2-2-0-0--0-0-|-5-------5---0-|
B|-5-------5---4-|-2-------2---0-|-3-3-4-4-0-0--0-0-|-5-------5---0-|
G|-6-------6---4-|-2-------2---1-|-2-2-4-4-0h1--1-1-|-6-------6---1-|
D|-7-------7---6-|-4-------4---2-|-0-0-4-4-2-2--2-2-|-7-------7---2-|
A|-7-------7---6-|-4-------4---2-|-----2-2-2-2--2-2-|-7-------7---2-|
E|-5-----5-5-4-4-|-2-----2-2-0-0-|---------0-0--0-0-|-5-----5-5-0-0-|


(verse 1)
A
  Somebody left me on the line...
 C#m
  Sitting on the other end for a long long time...
        F#m                         E
  And I don't know what to make of all of this...
A
  Now that summers here
  C#m
  Things come rushing back...
                         F#m    
  And all the tears are dry for now...
                                  E
  And I'm singing along to the song...

  I heard for the first time this time last year...


(chorus)
         D                        A
  Is it me or does it feel like July?..
            F#m                    B
  Cause my soul is as hot as the weather outside...
          Bm
  And my passion for you has returned...
                          E
  Like the color to my face...

  And I'm smiling again...


(guitar solo)
e|-20b21-----21-----------14-14--------16h17p16-------15/16--|
B|--------20----19--12/14-------14p12-----------14-17--------|
G|-----------------------------------------------------------|
D|-----------------------------------------------------------|
A|-----------------------------------------------------------|
E|-----------------------------------------------------------|

e|----16----15----14--14-17b19v------------------------------------------|
B|-14----14----17---------------------12-10------------------14--14/13v--|
G|-------------------------------9h11-------13-9-------------14--14/13v--|
D|-----------------------------------------------9------9/11-------------|
A|-------------------------------------------------9-7-------------------|
E|-----------------------------------------------------------------------|


(verse 2)
A
  Now that the moment's arrived...
  C#m
  Live in it don't sit on it...

  It's real...

  And besides...
                F#m
  When was the last time...
                            E
  You have been kissed like this...


(chorus)
           D                         A
  Wasting time in the middle of the night...
       F#m                     B
  Our bodies are tangled our lips wrapped tight...
           Bm
  And I'm lost once again...
                                  E
  In the rip tides of an unusual fate...

  But I'm smiling again....


(piano solo)
{play the intro x2}


(chorus)
         D                        A
  Is it me or does it feel like July?..
            F#m                    B
  Cause my soul is as hot as the weather outside...
          Bm
  And my passion for you has returned...
                        E
  All the color to my face...

  And I'm smiling again...
Добавлено: 23.10.2015
Другие материалы по этой песне:
  • Аккорды и текст

Страница создана 23.10.2015
http://primanota.ru/karas-flowers/july-chords.htm
Привет, Гость.
Предлагаем пройти революционный курс по гитаре.
Подарок от PrimaNota.Ru, забирай!