PrimaNota.ru - самый крупный в мире бесплатный архив песенных текстов, аккордов, табулатур и нот


Karas Flowers - Grave Condition - таба, видео

Регистрация Запомнить меня
Войти через:  Facebook Google Twitter Vk Yandex Mail.ru

Karas Flowers - Grave Condition - таба, видео

Печатать
Просмотров: 91
Grave Condition by Kara's Flowers
The Fourth World B-Side
Tabbed by Norman

(Intro)
   Bb               Bbm
e|----------------|-6-6---6-6---6--|
B|-3-3---3-3---3--|-6-6---6-6---6--|
G|-3-3---3-3---3--|-6-6---6-6---6--|
D|-3-3---3-3---3--|-8-8-8-8-8-8-8--|
A|-1-1-1-1-1-1-1--|-8-8-8-8-8-8-8--|
E|----------------|----------------|

   F               Eb      Bb           F               Eb      Bb
e|------------------------------------|----------------------------------|
B|-6-----6-----6-----6-6------6-8p6---|-6-----6-----6-----6-8------6---6-|
G|---5-5---------5---------/5-------5-|---5-5---5-5---5---------/5---5---|
D|-----------7-----8-----8------------|-----------------8-----8----------|
A|------------------------------------|----------------------------------|
E|------------------------------------|----------------------------------|


(Verse)
          F
It's time...
    Eb          Bb                F  
To ask myself what is the deal?..
    Eb           Bb              F   
To try and find some way to feel...
            Eb             Bb        
Because it can't be this lonely...
Db              Ab        Eb        
Can't be this lonely in here...
Db         Ab        G           
Slowly we all disappear....


(Bridge)
F              C       
There must be time...
     Db                   Ab            
To define this grave condition...
Db           Ab         
It won't be long...
Db           Eb         
It won't be long...
Db           Ab          
It won't be long....
Db           Eb         
It won't be long...


(Verse)
         F   
It's time...
     Eb             Bb           F     
To find out who it is that I am...
     Eb             Bb           F      
To scrape away the garbage I can...
            Eb             Bb         
Because it can't be this lonely...
Db              Ab        Eb        
Can't be this lonely in here...
Db         Ab       Eb          
Slowly we all disappear....


(Bridge)
Db           Ab         
It won't be long...
Db           Eb         
It won't be long...
Db           Ab          
It won't be long....
Db           Eb         
It won't be long...


(Interlude)
   Bb                Bbm
e|-----------------|-6-6-6-6-6-6-6-6-6-|
B|-3-3-3---3-3---3-|-6-6-6-6-6-6-6-6-6-|
G|-3-3-3---3-3---3-|-6-6-6-6-6-6-6-6-6-|
D|-3-3-3---3-3---3-|-8-8-8-8-8-8-8-8-8-|
A|-1-1-1-1-1-1-1-1-|-8-8-8-8-8-8-8-8-8-|
E|-----------------|-6-6-6-6-6-6-6-6-6-|

(Chorus)
           F       
When I'm lonely...
           Dm           
And I'm strung out....
        Gm     
Let me be....
                C  Db        
Cause I'm not right...
         F           Dm          
This is only my condition....
          Gm      
And I may be....
          C  Db          
Another night.......


(Solo)
e|-------------------------------5v--------------------------------------------------|
B|-6-8-8v--6v--6-8-8v--6v--6-6-6-----8v--8h10p8--6h8p6h8p6/-3-5-5-3h5p3h5-/8-6-5-5h6-|
G|-----------------------------------------------------------------------------------|
D|-----------------------------------------------------------------------------------|
A|-----------------------------------------------------------------------------------|
E|-----------------------------------------------------------------------------------|

e|------------------------------------------------------------------------------------------------------|
B|-8v--6v--6h8p6h8-6-8-/11v--10v--10h11p10--8h10p8--8-8-10-10-11-11-13-13-14-13-14-13-14p13h14p13h14p13-|
G|------------------------------------------------------------------------------------------------------|
D|------------------------------------------------------------------------------------------------------|
A|------------------------------------------------------------------------------------------------------|
E|------------------------------------------------------------------------------------------------------|


(Chorus)
           F       
When I'm lonely...
           Dm           
And I'm strung out....
        Gm     
Let me be....
                C  Db        
Cause I'm not right...
         F           Dm          
This is only my condition....
          Gm      
And I may be....
          C  Db          
Another night.......

(Chorus)
           F       
When I'm lonely...
           Dm           
And I'm strung out....
        Gm     
Let me be....
                C  Db        
Cause I'm not right...
         F           Dm          
This is only my condition....
          Gm      
And I may be....
          C  Db    F        
Another night.......
Добавлено: 23.10.2015
Вам также может быть интересно:
Другие материалы по этой песне:
  • Аккорды и текст

Страница создана 23.10.2015
http://primanota.ru/karas-flowers/grave-condition-chords.htm
Привет, Гость.
Предлагаем пройти революционный курс по гитаре.
Подарок от PrimaNota.Ru, забирай!