PrimaNota.ru - самый крупный в мире бесплатный архив песенных текстов, аккордов, табулатур и нот


Karas Flowers - Genius - бас-таба, видео

Регистрация Запомнить меня
Войти через:  Facebook Google Twitter Vk Yandex Mail.ru

Karas Flowers - Genius - бас-таба, видео

Печатать
Просмотров: 124
Уроки эстрадного вокала в Санкт-Петербурге
Genius by Kara's Flowers
Tabbed by Norman
From their album, ...We Like Digging?

(Intro/Verse):
G ----------------|
D -2--------------|
A ----4--5--------|
E ----------5--5--|

G ----------------|
D -2--------------|
A ----4--5--------|
E ----------3--5--|

*Repeat until right before the chorus starts)

(Pre-Chorus Line):
G ----------------------------------|
D ----------------------------------|
A -----5-5--------------5-5---------|
E -7-7-----5-5-3-3-/7-7-----5-5-3-3-|


(Chorus):
G ----------------|
D ----------------|
A ----2--3--0--0--|
E -0--------------|

G ----------------|
D ----------------|
A ----2--3/-------|
E -0--------3--5--|

G ----------------|
D ----------------|
A ----2--3--0--0--|
E -0--------------|

G ----------------|
D ----------------|
A ----2--3--------|
E -0--------3--5--|


(Verse):
G ----------------|
D -2--------------|
A ----4--5--------|
E ----------5--5--|

G ----------------|
D -2--------------|
A ----4--5--------|
E ----------3--5--|

*repeat again until right before the chorus

(Pre-Chorus Line):
G ----------------------------------|
D ----------------------------------|
A -----5-5--------------5-5---------|
E -7-7-----5-5-3-3-/7-7-----5-5-3-3-|


(Chorus):
G ----------------|
D ----------------|
A ----2--3--0--0--|
E -0--------------|

G ----------------|
D ----------------|
A ----2--3/-------|
E -0--------3--5--|

G ----------------|
D ----------------|
A ----2--3--0--0--|
E -0--------------|

G ----------------|
D ----------------|
A ----2--3--------|
E -0--------3--5--|


(Solo):
G ----------------|
D ----------------|
A -7--2--3--0--0--|
E ----------------|

G ----------------|
D ----------------|
A -7--2--3--------|
E ----------3--5--|

G ----------------|
D ----------------|
A -7--2--3--0--0--|
E ----------------|

G ----------------|
D ----------------|
A -7--2--3--------|
E ----------3--5--|

G -----------------|
D -----------------|
A -----5-----------|
E -7-------5---3---|

G -----------------|
D -----------------|
A -----5-----------|
E -7-------5---3---|


(Chorus):
G ----------------|
D -2--------------|
A ----4--5--------|
E ----------5--5--|

G ----------------|
D -2--------------|
A ----4--5--------|
E ----------3--5--|

G ----------------|
D -2--------------|
A ----4--5--------|
E ----------5--5--|

G ----------------|
D -2--------------|
A ----4--5--------|
E ----------3--5--|

G ----------------|
D ----------------|
A ----2--3--0--0--|
E -0--------------|

G ----------------|
D ----------------|
A ----2--3--------|
E -0--------3--5--|

G ----------------|
D ----------------|
A ----2--3--0--0--|
E -0--------------|

G ----------------|
D ----------------|
A ----2--3--------|
E -0--------3-----|
Добавлено: 30.05.2015
Другие материалы по этой песне:
  • Аккорды и текст

Страница создана 30.05.2015
http://primanota.ru/karas-flowers/genius-chords.htm
Привет, Гость.
Предлагаем пройти революционный курс по гитаре.
Подарок от PrimaNota.Ru, забирай!