PrimaNota.ru - самый крупный в мире бесплатный архив песенных текстов, аккордов, табулатур и нот


Karas Flowers - Dreammaker 222 - бас-таба, видео

Регистрация Запомнить меня
Войти через:  Facebook Google Twitter Vk Yandex Mail.ru

Karas Flowers - Dreammaker 222 - бас-таба, видео

Печатать
Просмотров: 101
Dreammaker #222 by Kara's Flowers
Tabbed by Norman

*I would suggest first listening to the song and trying to follow along to get a good 
idea of the song.

(Intro):
         D    F#m     G       A        D     F#m     G        A
G -----------7----------------------------------------------------|
D -------------------------------7h9-7----4-7------4--------------|
A -0-2-4-5--------4-----2-3-5----------5---------4------2-5-2-----|
E -------------2----2-3-------5---------------2------3--------5---|

(Verse 1):
   D  F#m  G      A       D     F#m     G       A
G ------------------------------------------------------|
D ------------4-5-7----7-----4--------4-----------7h9-7-|
A -5----------------------5---------4-----2-3-5---------|
E -----2---3---------5-----------2------3-------5-------|

   D   F#m   G      A     D     F#m  G    A
G ------------------------------------------|
D ----4----4----------7------4---4---5--6-7-|
A -5------------2---------5-----------------|
E ------2----3----3-5---5-------------------|


(Pre-Chorus):
   Em  A       Em   A           Em    A   Am   G
G --------------------------------------------------------|
D --------7h9-7--2----9h11-9------2---------------------5-|
A ---------------------------/12--------------------3-5---|
E -0---5--------0---5------------0----5--------0-3--------|

   Em   A        Em   A        Em   A   Am   D         G
G --------------------------------------------------7/----------|
D ---------7h9-7---------7h9-7-------------7----5h7-----------5-|
A -7-------------7-------------7-------------5------------3-5---|
E ------5-------------5-------------5------------------3--------|


(Chorus):
   C     B      Em     D     C    Cm
G ------------4-----------7-------5-5-5-5-|
D ----------4--------2--------------------|
A -3---3-2---------2---5-----3------------|
E --------------0-------------------------|

   G     B     Em          C          Cm
G -------------------------------------5---|
D -----------------------------------------|
A -------2-2-2-------------3-3-3-3-3-3-----|
E -3-3-3-------0-0-0-0-0-0-----------------|


(Break 1):
     D  F#m     G      A    D   F#m     G    A
G -5-7-------------------------------------------|
D -----------------------------4-----------------|
A ----------4------2--------5-------4------------|
E -------2----2-3----3-5---------2----2-3----5---|


(Verse 2):
   D  F#m     G        A        D   F#m   G         A
G ----------------------------------------------------------|
D --------4---------------7h9-7------4----5---4-5-6-7-----7-|
A -5--------4----2-3-5----------5-----------------------5---|
E -----2------3--------5------------------------------------|

   D       F#m       G        A         D      F#m     G         A
G --------------------------------------------------------------------|
D ----4-7-4------4---------------7h9-7/----4-7/-----------------------|
A -5-----------4---4----2-3-5-----------5----------4------2-3-5/-0----|
E ----------2--------3--------5-----------------2----2-3--------------|


(Pre-Chorus):
   Em   A        Em  A             Em   A  Am   G
G ----------------------------------------------------------|
D ---------7h9-7--------9h11-9-------2-------------------5--|
A -----------------------------/12-------------------3-5----|
E -0----5--------0---5-------------0----5-------0-3---------|

   Em   A    Em   A        Em   A    Am   D      G
G -------------------------------------------7-------------|
D -------------------7h9-7-----------7---------7--------5--|
A ----------------------------------------5---------3-5----|
E -0----5----0----5--------0----5----------------3---------|


(Chorus):
   C      B      Em     D      C     Cm
G ----5-5----4-4-----------7p5-------5--5--|
D ------------------2-2--------------------|
A -3------2-------------5------3--3--------|
E ---------------0-------------------------|

   G     B     Em          C           Cm
G -------------------------------------5--5--|
D -------------------------------------------|
A -------2-2-2-------------3-3-3-3-3-3-------|
E -3-3-3-------0-0-0-0-0-0-------------------|


(Break 2):
   G           F           G           F           Em          C
G -------------------------------------------------------------------------5--5--|
D -------------------------------------------------------------------------------|
A -------------------------------------------------------------3-3-3-3-3-3-------|
E -3-3-3-3-3-3-1-1-1-1-1-1-3-3-3-3-3-3-1-1-1-1-1-1-0-0-0-0-0-0-------------------|

   G     F     Em    C     G     F     Em    C
G ----------------------5--------------------5-------5--|
D ---------------------------------------------5---5----|
A -------------------3---------------------------3------|
E -3--3--1--1--0--0--------3--3--1--1--0--0-------------|

   G     F     Em   C      G     F     Em   Cm
G ---------------------5--------------------8----|
D -----------------------5-----------------------|
A ------------------3----------------------------|
E -3--3--1--1--0--0--------3--3--1--1--0---------|


(Solo/Outro):
   D   F#m     G    A         D     F#m   G    A
G ------------------------------------------------|
D ---------4-----------7h9-7/----4-7-4----5--6-7--|
A -5---------4----------------5-------------------|
E ------2------3----5-----------------------------|

   D    F#m    G      A           D      F#m    G    A
G -------------------------------------------------------|
D -----4-----4-----------7h9-7-------7-7/----4---------7-|
A -5--------------2------------/9-5----------------------|
E -------2-----3----3-5-------------------2-----3----5---|

   D   F#m    G      A    D       F#m     G    A
G ----------------------------------------------------------|
D ----------------------7----4-7-4------4---------7h9-7/----|
A -5----------------------5-----------4------------------5--|
E ------2---2-3--3-4-5-------------2------3----5------------|
Добавлено: 30.05.2015
Другие материалы по этой песне:
  • Аккорды и текст

Страница создана 30.05.2015
http://primanota.ru/karas-flowers/dreammaker-222-chords.htm
Привет, Гость.
Предлагаем пройти революционный курс по гитаре.
Подарок от PrimaNota.Ru, забирай!