PrimaNota.ru - самый крупный в мире бесплатный архив песенных текстов, аккордов, табулатур и нот


Käptn Peng - Der Anfang Ist Nah - таба, бас-таба, видео

Регистрация Запомнить меня
Войти через:  Facebook Google Twitter Vk Yandex Mail.ru

Käptn Peng - Der Anfang Ist Nah - таба, бас-таба, видео

Печатать
Просмотров: 53
-------------------------------------------------------------------------------
         Der Anfang Ist Nah - Kaeptn Peng & Die Tentakel von Delphi
-------------------------------------------------------------------------------
Tabbed by: Tentakel
E-mail: m.rammler@tu-bs.de

Tuning: Standard

This is quite an easy Tab that sounds fantastic neverteless. In the official video it's played with
plec but I suggest Fingerstyle for nonadvanced players. You will find that striking two strings at once 
clearly is much easier that way! Please contact me if you have any suggestions. Enjoy!


Guitar Intro

    Q   E E Q   Q      Q   E E Q   E E    Q   E E Q.    E    H
e|------------------|------------------|------------------|------------------|
B|------------------|------4---6---4---|------------------|------------------|
G|------5---4-------|----------------6-|------5---4-----5-|--5---------------|
D|------------------|------------------|------------------|------------------|
A|------------------|--3-----3-4-------|------------------|--3---------------|
E|--4-----4-3---3---|------------------|--4-----4-3-------|------------------|


Guitar Interlude

    Q   E E Q   E E    Q   E E Q   E E    E E E E Q   Q      E E E E Q   E E
e|------------------|------------------|------------------|------------------|
B|------------------|------4---6---4---|------------------|------4---4-------|
G|------5---4-------|----------------6-|------5---4-------|--------------5-3-|
D|------------------|------------------|------------------|------------------|
A|------------------|--3-----3-4-------|------------------|--3-3---3-4-------|
E|--4-----4-3---3-3-|------------------|--4-4---4-3---3---|------------------|


************************************

|H  half note
|Q  quarter note
|E  eighth note
|Q. pointed quarter note (e.g.)

************************************
Добавлено: 09.05.2016
Другие материалы по этой песне:
  • Аккорды и текст

Страница создана 09.05.2016
http://primanota.ru/kaptn-peng/der-anfang-ist-nah-chords.htm
Привет, Гость.
Предлагаем пройти революционный курс по гитаре.
Подарок от PrimaNota.Ru, забирай!