PrimaNota.ru - самый крупный в мире бесплатный архив песенных текстов, аккордов, табулатур и нот


Kaponz & Spinoza - Sale Mioche - бас-таба, видео

Регистрация Запомнить меня
Войти через:  Facebook Google Twitter Vk Yandex Mail.ru

Kaponz & Spinoza - Sale Mioche - бас-таба, видео

Печатать
Просмотров: 162
INTRO

	G |-----------------------------------|
	D |-----------------------------------|
	A |-----------------------------------|
	E |-5-55-55-3-33-33-1-11-11-0-000-----|


VERSE

	G |----------------------------------------------------------|
	D |----------------------------------------------------------|
	A |-----------7-5-4-----------2-3-5--------------------------|
	E |-5-55-55-5-------3-33-33-3-------1-11-1-3-0-000345--------|


CHORUS

	G |-----------------------------------------------------------|
	D |-----------------------------------------------------------|
	A |-/5-55-55-5555-3-33-33-3333-/7-77-7(h)9--------------------|
	E |----------------------------------------7-77-7(j)9-5-55-55-|

SOLO

	G |-12(h)14--14-12---------12------------------------------|
	D |----------------14-12-14--14--12-10-10/14-10-12--10-12--|
	A |-----------------------------------------------12-------|
	E |--------------------------------------------------------|


	G |-------------------------12-(p)14------------------------|
	D |13(h)12(h)10--10-12-12/14--------------------------------|
	A |------------12-------------------------------------------|
	E |---------------------------------------------------------|
Добавлено: 04.07.2012
Другие материалы по этой песне:
  • Аккорды и текст

Страница создана 04.07.2012
http://primanota.ru/kaponz-and-spinoza/sale-mioche-chords.htm
Привет, Гость.
Предлагаем пройти революционный курс по гитаре.
Подарок от PrimaNota.Ru, забирай!