PrimaNota.ru - самый крупный в мире бесплатный архив песенных текстов, аккордов, табулатур и нот


Kapena - Sea Of Heartbreak - аккорды и текст, видео

Регистрация Запомнить меня
Войти через:  Facebook Google Twitter Vk Yandex Mail.ru

Kapena - Sea Of Heartbreak - аккорды и текст, видео

Печатать
Просмотров: 146
Sea Of Heartbreak
Kapena
-------------------------------------------------------------------------------
                             SONG NAME –SEA OF HEARTBREAK
                                                   BAND NAME - KAPENA
-------------------------------------------------------------------------------
Tabbed by: WALTER DAVIS
Email:WWW.W.DAVIS2424@YAHOO.COM

Tuning:STANDERD
CHORDS: A,F#m,D,E7
CHORUS: A,Em,A,D,A,E7,A,E7


   A                     F#m     D                    E7
e|-0---------------------2-------2--------------------0--------------------------|
B|-2---------------------2-------3--------------------3--------------------------|
G|-2---------------------2-------2--------------------1--------------------------|
D|-2---------------------4-------0--------------------2--------------------------|
A|-0---------------------4-------0--------------------2--------------------------|
E|-0---------------------2-------0--------------------0--------------------------|
   ALL THE LIGHTS IN THE HARBOR, THEY DON'T SHINE FOR ME

   A                     F#m     D                    E7
e|-0---------------------2-------2--------------------0--------------------------|
B|-2---------------------2-------3--------------------3--------------------------|
G|-2---------------------2-------2--------------------1--------------------------|
D|-2---------------------4-------0--------------------2--------------------------|
A|-0---------------------4-------0--------------------2--------------------------|
E|-0---------------------2-------0--------------------0--------------------------|
   AM LIKE A LOST        SHIP    AWAY FORM THE        SEA

                              CHORUS:

                   A                       Em                            A
e|-----------------0-----------------------0-----------------------------0----------------|
B|-----------------2-------------------- --0-----------------------------2----------------|
G|-----------------2-----------------------1-----------------------------2----------------|
D|-----------------2-----------------------2-----------------------------2----------------|
A|-----------------0-----------------------2-----------------------------0----------------|
E|-----------------0-----------------------0-----------------------------0----------------|
   AM ON A SEA OF HEARTBREAK, LOST LOVE AN LONELYNESS,  mem'ries of your caress soo. divine,

   D                          A                          E7
e|-2--------------------------0--------------------------0---------------|
B|-3--------------------------2--------------------------3---------------|
G|-2--------------------------2--------------------------1---------------|
D|-0--------------------------2--------------------------2---------------|
A|-0--------------------------0--------------------------2---------------|
E|-0--------------------------0--------------------------0---------------|
   HOW I WISH YOU WHERE MINE, AGAIN MY DEAR AM ON A SEA OF TEARS A SEA OF

e|-0-------------------0—--|
B|-2-------------------3---|
G|-2-------------------1---|
D|-2-------------------2---|
A|-0-------------------2---|
E|-0-------------------0---|
  HEARTBREAK OHH OHH OHH

A             F#m     D              E7
Oh how did I lose you oh where did I fail
A           F#m      D         E7
Why did you leave me always to sail

          [repeat chorus:]

A             F#m     D              E7
Oh come to my rescue oh come back to me
A                          F#m     D              E7
Please Take me take me and keep me away from the sea

          [repeat chorus:]


| /  slide up
| \  slide down
| h  hammer-on
| p  pull-off
| ~  vibrato
| +  harmonic
| x  Mute note
Добавлено: 09.04.2012
Вам также может быть интересно:
Другие материалы по этой песне:
  • Аккорды и текст

Страница создана 09.04.2012
http://primanota.ru/kapena/sea-of-heartbreak-chords.htm
Привет, Гость.
Предлагаем пройти революционный курс по гитаре.
Подарок от PrimaNota.Ru, забирай!