PrimaNota.ru - самый крупный в мире бесплатный архив песенных текстов, аккордов, табулатур и нот


Kanye West - Street Lights - аккорды и текст, таба, видео

Регистрация Запомнить меня
Войти через:  Facebook Google Twitter Vk Yandex Mail.ru

Kanye West - Street Lights - аккорды и текст, таба, видео

Печатать
Просмотров: 169
Уроки эстрадного вокала в Санкт-Петербурге
Street Lights
Kanye West
-------------------------------------------------------------------------------
                             Street Lights - Kanye West
-------------------------------------------------------------------------------
Chords by: Michael Drayer
Email: thecheat07@hotmail.com

Regular Tuning
This song is in Db major and uses the following chords:
    Gb     Fm     Ab     Db   The repeated notes that run through the song are
e|--2---|---1---|--4--|--4--|----------------11---13-------------------------|
B|--2---|---1---|--4--|--6--|------------------------------------------------|
G|--3---|---1---|--5--|--6--|------------------------------------------------|
D|--4---|---3---|--6--|--6--|------------------------------------------------|
A|--4---|---3---|--6--|--4--|------------------------------------------------|
E|--2---|---1---|--4--|--x--|------------------------------------------------|

You can play this song with just power chords of the above and
have a tremelo effect on and it'll sound like the background guitar

Song sounds good with a piano, a distorted guitar, and drums (and singers of course)

Beginning: You can use a delay pedal or something to 
just keep the repeated notes going throughout the whole song

Starts with Gb and the repeating notes

       F#    
let me know, do I still got time to
Fm
grow, things ain't always set in
F#   Ab
stone, that bein' known, let me
C#
know, let me, it seems like

Chorus:
F#
streetlights, glowin', happen to be just like
Fm
moments, passin' in front of me
      F#                    Ab
so, i hopped in the cab and i paid my fare
       C#
see, i know my destination, but i'm just not there

Repeat Chorus

Bridge:
       F#
in the streets
       Fm
in the streets, i'm just not there
       F#
in the streets, i'm just not there
Fm
life's just not fair

Chorus x3

Outro:
       F#
in the streets
       Fm
in the streets, i'm just not there
       F#       Ab
in the streets, i'm just not there
C#
life's just not fair, life's just not fair…


And that's it!  Great song, very different from his other stuff
Want any other tabs? send me an email

Добавлено: 07.03.2012
Другие материалы по этой песне:
  • Аккорды и текст

Страница создана 07.03.2012
http://primanota.ru/kanye-west/street-lights-chords.htm
Привет, Гость.
Предлагаем пройти революционный курс по гитаре.
Подарок от PrimaNota.Ru, забирай!