PrimaNota.ru - самый крупный в мире бесплатный архив песенных текстов, аккордов, табулатур и нот


Kanye West - Fml - аккорды и текст, таба, видео

Регистрация Запомнить меня
Войти через:  Facebook Google Twitter Vk Yandex Mail.ru

Kanye West - Fml - аккорды и текст, таба, видео

Печатать
Просмотров: 77
Новый альбом группы 'Черный Кузнец' по культовому сериалу 'Сверхъестественное'!
Fml
Kanye West
[Intro]

     [Cm]   I been              waitin       [B]     for a                 minute

e|----1--------------1------------------------1-----------------1------------------|
B|----3--------------3----1-------------------1-----------------3----1-------------|
G|----2-------------------2-------------------2----------------------2-------------|
D|----0---------------------------------------3------------------------------------|
A|--------------------------------------------3------------------------------------|
E|--------------------------------------------1------------------------------------|


     [F#]   for my              lady         [G]     so I can't     jeopardize that for one of these 

e|----1--------------1------------------------0-----------------1----3-------------|
B|----3--------------3----1-------------------1-----------------3----5-------------|
G|----3-------------------2-------------------0------------------------------------|
D|----3---------------------------------------2------------------------------------|
A|----1---------------------------------------3------------------------------------|
E|---------------------------------------------------------------------------------|

hoes [Cm]  I've been            livin        [B]       without          limits

e|----1--------------1------------------------1-----------------1------------------|
B|----3--------------3----1-------------------1-----------------3----1-------------|
G|----2-------------------2-------------------2----------------------2-------------|
D|----0---------------------------------------3------------------------------------|
A|--------------------------------------------3------------------------------------|
E|--------------------------------------------1------------------------------------|


     [F#]  as far as           my business   [G]    I'm the              only one that's in control

e|----1--------------1------------------------0-----------------1----3-------------|
B|----3--------------3----1-------------------1-----------------3----5-------------|
G|----3-------------------2-------------------0------------------------------------|
D|----3---------------------------------------2------------------------------------|
A|----1---------------------------------------3------------------------------------|
E|---------------------------------------------------------------------------------|
Добавлено: 10.05.2018
Вам также может быть интересно:
Другие материалы по этой песне:
  • Аккорды и текст

Страница создана 25.11.2017
http://primanota.ru/kanye-west/fml-chords.htm
Привет, Гость.
Предлагаем пройти революционный курс по гитаре.
Подарок от PrimaNota.Ru, забирай!