PrimaNota.ru - самый крупный в мире бесплатный архив песенных текстов, аккордов, табулатур и нот


Kanye West - Cold - таба, видео

Регистрация Запомнить меня
Войти через:  Facebook Google Twitter Vk Yandex Mail.ru

Kanye West - Cold - таба, видео

Печатать
Просмотров: 122
-------------------------------------------------------------------------------
                             Cold - Kanye West
-------------------------------------------------------------------------------
Tabbed by: Slade532
E-mail: Tommyhdz532@Gmail.com
Repeated Through Whole Song
Tuning: Standard

e|-----------------9--------------------9--------------------9------------------------|
B|-10-10-10-9-9---------10-10-10-9-9---------10-10-10-9-9---------12-10-10-9-9-10-9---|
G|----------------------------------------------------------------------------------11|
D|--------------11---11--------------11---11--------------11---11---------------------|
A|------------------------------------------------------------------------------------|
E|------------------------------------------------------------------------------------|


************************************

| /   slide up
| \   slide down
| h   hammer-on
| p   pull-off
| ~   vibrato
| +   harmonic
| x   Mute note
| b   Bend
| pb  Pre-bend
| br  Bend release
| pbr Pre-bend release
| brb Bend release bend

************************************
Добавлено: 13.05.2015
Другие материалы по этой песне:
  • Аккорды и текст

Страница создана 13.05.2015
http://primanota.ru/kanye-west/cold-chords.htm
Привет, Гость.
Предлагаем пройти революционный курс по гитаре.
Подарок от PrimaNota.Ru, забирай!