PrimaNota.ru - самый крупный в мире бесплатный архив песенных текстов, аккордов, табулатур и нот


Kanu - Ny Makker - аккорды и текст, таба, видео

Регистрация Запомнить меня
Войти через:  Facebook Google Twitter Vk Yandex Mail.ru

Kanu - Ny Makker - аккорды и текст, таба, видео

Печатать
Просмотров: 98
Уроки эстрадного вокала в Санкт-Петербурге
Ny Makker
Kanu
Intro

e|---------|
B|---------|
G|---------|
D|---------|
A|6--------|
E|--6-7-4--|

Main riff

e|--------------------------------------------4h6p4-|
B|--------------------------------------------------|
G|-------10----------10--------------8--------------|
D|----11----------11----11---------9--------6-------|
A|--11---------11----------11----9--------6---------|
E|9---------6-----------------7-------4-------------|
Добавлено: 16.06.2016
Другие материалы по этой песне:
  • Аккорды и текст

Страница создана 16.06.2016
http://primanota.ru/kanu/ny-makker-chords.htm
Привет, Гость.
Предлагаем пройти революционный курс по гитаре.
Подарок от PrimaNota.Ru, забирай!