PrimaNota.ru - самый крупный в мире бесплатный архив песенных текстов, аккордов, табулатур и нот


Kannon - Arde - таба, видео

Регистрация Запомнить меня
Войти через:  Facebook Google Twitter Vk Yandex Mail.ru

Kannon - Arde - таба, видео

Печатать
Просмотров: 76
-----
INTRO
-----


-----------------------------|
-----------------------------|
--5--4--2--2-----5--4--2--2--| (x4)
--3--2--0--0-----3--2--0--0--|
--3--2--0--0--0--3--2--0--0--|
--------------0--------------|
              PM


-----
VERSO (Hay calor debajo...)
-----


Guitarra 1
----------

----------------------------|
----------------------------|
----------------------------| (x4)
-----0--2--3-------0-----0--|
----------------------3-----|
--0-------------0-----------|

---------------------------------------------------|
---------------------------------------------------|
---------------------------------------------------| (x8)
---------------------------------------------------|
---------------------------------------------------|
--3-3-3-3--2-2-2--0-0--0-0-0--3-3-3-3--2-2-2--0-0--|
  PM.............................................


Guitarra 2 [Con efectos]
----------

-----------------------|
-----------------------|
--------7--7--------7--| (tocar varias veces)
--0--0--------0--0-----|
-----------------------|
-----------------------|


--------
CHORUS 1
--------


1) (Arde, el suelo arde...)


-------------------------------|
-------------------------------|
-------------------------------| (x4)
--3--2--0--0--0----3--2--0--0--|
--3--2--0--0--0----3--2--0--0--|
--3--2--0--0--0----3--2--0--0--|


2) (Salta...)


Tocar lo mismo que en Intro


-----
FINAL (Arde, el suelo arde...)
-----


Guitarra 1
----------

-------------------------------|
-------------------------------|
--5--4--2--2--2----5--4--2--2--| (x4)
--3--2--0--0--0----3--2--0--0--|
--3--2--0--0--0----3--2--0--0--|
--3--2--0--0--0----3--2--0--0--|


Guitarra 2 [Con efectos]
----------

---------------------------------|
---------------------------------|
--10--9--7--7--7----10--9--7--7--| (x4)
--10--9--7--7--7----10--9--7--7--|
---------------------------------|
---------------------------------|
Добавлено: 16.07.2013
Другие материалы по этой песне:
  • Аккорды и текст

Страница создана 16.07.2013
http://primanota.ru/kannon/arde-chords.htm
Привет, Гость.
Предлагаем пройти революционный курс по гитаре.
Подарок от PrimaNota.Ru, забирай!