PrimaNota.ru - самый крупный в мире бесплатный архив песенных текстов, аккордов, табулатур и нот


Kane - Taurus Hangin On - аккорды и текст, таба, видео

Регистрация Запомнить меня
Войти через:  Facebook Google Twitter Vk Yandex Mail.ru

Kane - Taurus Hangin On - аккорды и текст, таба, видео

Печатать
Просмотров: 176
Taurus Hangin On
Kane
Riff1a
e----------------------|
B----------------------|
G----------------------|
D-2-0---0--------------|
A-----4---4-0-----0-0--|
E-------------0-3------|
 
Riff1b
e-----------------------------|
B-----------------------------|
G-----------------------------|
D-----------------------------|
A-----0-1-0---------5-4-5-4---|
E-0-3-------3-0-3-5---------5-|

Riff1c
e-----------------------------------|
B-----------------------------------|
G-----------------------------------|
D-----------------------------------|
A-0-3-5-5-4-5-4-5-4--10--9---7---5--|
E--------------------8---7---5---3--|


Riff2a
e-------x-x------------------------|
B-------x-x------------------------|
G-------x-x------4--5--------5-/7--|
D-5--7--x-x-5--7-4--5--5--7--5-/7--|
A-5--7--x-x-5--7-2--3--5--7--3-/5--|
E-3--5--x-x-3--5-------3--5--------|

Riff2b
e-------x-x------------------------|
B-------x-x------------------------|
G-------x-x------4--5--------------|
D-5--7--x-x-5--7-4--5--5--7--3-----|
A-5--7--x-x-5--7-2--3--5--7--3-----|
E-3--5--x-x-3--5-------3--5--1-----|


Riff3
         Palm mute
e-------------------------|
B-------------------------|
G-------------------------|
D-------------------------|
A-5--7---5--7--5-8-7-5-7--|
E-3--5---3--5--3-6-5-3-5--|
  G5 A5  G5 A5


Riff4
e-----------------------------|
B-----------------------------|
G-----------------------------|
D-----------------------------|
A-7-7---5-7-7---7-7-7---7-5-7-|
E-5-5-6-3-5-5-6-5-5-5-6-5-3-5-|


Riff1a  Riff1b
              Oh
Riff1a  Riff1b
        Yeah     yeah
Riff1a  Riff1c
yeah yeah yeah      yeah yeah yeah yeah

Riff2a  Riff2b

          A5
I like to taste you a little further
I like to get down baby don't you know
I like to get down baby don't you know
It feels so right
          G5    A5
I like to taste ya a little waste ya
I like it just the way you are
           Riff3             A5
I like you just the way you are Don't be shy

Riff2a  Riff2b
Yeah

             A5
And when you put on your sexy make up
You make things so fine
I like to get down baby
Don't you know what's on my mind
          G5  A5
I like to pull you up
Like to take you down
In any way I can
         Riff3          A5
Like you in any way I can  Don't be shy

[Chorus]
A5          C5
Yeah yeah yeah yeah     You got me baby
A5          F5
yeah yeah yeah yeah     You got me baby___
A5 (&Riff4)
____________   yeah
A5 (&Riff4)
You got me hanging on, hanging on
           F5         G5
You know you got me   What you say

Riff2a
Time time, look is fuckin' on my mind

A5
I'm gonna get to you baby
Three, four times my baby
I'm gonna get to you feel right
          G5   A5
I like to pull you up
Like to take you down
In any way I can
         Riff3          A5
Want you in any way I can  Don't be shy

[Chorus]
A5          C5
Yeah yeah yeah yeah     You got me baby
A5          F5
yeah yeah yeah yeah     You got me baby___
A5 (&Riff4)
____________   yeah
A5 (&Riff4)
You got me hanging on, hanging on
           F5         G5
You know you got me   What you say

A5   A5


Riff5a
e-----------------------|
B-----------------------|
G-----------------------|
D-----------------------|
A---0-0-0-3-0-----------|
E-3-----------2b~~~~----|
  G5 A5  C5 A5 F#5  3x

Riff5b
e----------------------------|
B----------------------------|
G---------------------0---2--|
D-------------0---0h2---2----|
A---0-0-0-3-0---3------------|
E-3--------------------------|


Riff5a 3x    Riff5b 1x
Riff5a 3x    Riff5b 1x

[Solo]
Riff4  3x
F5  G5
Riff4  3x
F5  G5

A5     A5 A#5
A5     A#5  / / ///

Riff2a  Riff2b
Come on  Come on now oh yeah yeah

A5
Gonna get to you baby oh
Gonna get to you baby oh oh
G5    A5
Chain me, oh frame me
Everybody going insane
           Riff3
Just gotta have it please__________

[Chorus]

Bey you got me (3x)  What you say
Banging on hanging on   You know you got me hanging on
Banging on hanging on   You know you got me hanging on
You know you got me   Come on baby

Riff1a  Riff1b    Riff1a  Riff1b
Na na na

Chords:
A5  x022xx
G5  355xxx

C5  x355xx
F5  133xxx
A#5 x133xx
B5  x244xx
Добавлено: 24.10.2013
Другие материалы по этой песне:
  • Аккорды и текст

Страница создана 24.03.2012
http://primanota.ru/kane/taurus-hangin-on-chords.htm
Привет, Гость.
Предлагаем пройти революционный курс по гитаре.
Подарок от PrimaNota.Ru, забирай!