PrimaNota.ru - самый крупный в мире бесплатный архив песенных текстов, аккордов, табулатур и нот


Kane - High Places - таба, видео

Регистрация Запомнить меня
Войти через:  Facebook Google Twitter Vk Yandex Mail.ru

Kane - High Places - таба, видео

Печатать
Просмотров: 117
                            High Places (acoustic)


Artist: Kane

My first tab, completely tabbed by ear. It's my interpretation of the song, so this can't
be 100% correct ='). But I guess it's close though!

Basically there are only two chords progressions in this song.

Tuning: CAPO on 1 <<< drop D#

(how to: simply put your guitar in drop d -downtuning the "E" string to a "D"- with the capo 
on 1. So make sure you have some thicker strings on your guitar when you want to play 
live!)

----------------------------------------
It's also possible to play this tune in Drop D without the capo, wich makes singing a bit
easier cause then it's 1/2 step lower!
----------------------------------------

Slowly count in a 1/4 beat. tempo: 79 (79,338 or something if you really want to play along 
the CD!).

S=16th E=8th and Q=quarter note! :D

And don't be scared of the chords, they look hard cause it's 1/2 step higher :P.

  CAPO 1           D#Maj
       S  S S  S  E.    E.  Q    E     S S S S E.  E.  E  S  S S S
F ||--------------------------------|------------------------------|
C ||--------------5-----------------|----------5-------------------|
G#||*--4h-6-L-(6)-------6---4----L--|--L-L-L-L-----6---4--6p-4-2-L-|
D#||*-------------------------------|------------------------------|
A#||--------------------------------|------------------------------|
D#||---0-------------------------L--|--0------------------L--------|


  A#sus4
  E.     S E.  E.  E.  S E     E.  S E.  E.  E.  S E   6x
----------------------------|--------------------------||
-----------2---0---2---2----|--------2---0---2---2-----||
--2------2---------------2--|--2---2---------------2--*||
----------------------------|-------------------------*||
--0------L-L---0-------L-0--|--0---L-L---0-------L-0---||
----------------------------|--------------------------||

CHORUS
  G#Maj    Freestyle pattern             D#Sus4      Cm
  H        H                    H        H           H        H
-----------------------------|--------------------|--------------------|
--3--------0-----------------|--3--------3--------|--3--------3--------|
--0--------0-----------------|--2--------2--------|--4--------4--------|
--0--------0-----------------|--0--------0--------|--4--------4--------|
-----------------------------|--------------------|--2--------2--------|
--5--------5-----------------|--0--------0--------|--------------------|


  F        When the river...             G#Maj       D#Sus4
  H        H                    H        H           H        H
-----------------------------|--------------------|--------------------|
--0--------0-----------------|--3--------0--------|--3--------3--------|
--1--------1-----------------|--0--------0--------|--2--------2--------|
--2--------2-----------------|--0--------0--------|--0--------0--------|
-----------------------------|--------------------|--------------------|
--2--------2-----------------|--5--------5--------|--0--------0--------|


  Cm                   F                   VERSE2        D#Maj
  H        H           H        H             S  S S  S  E.    E.  Q    E
--------------------|--------------------||--------------------------------|
--3--------3--------|--0--------0--------||--------------5-----------------|
--4--------4--------|--1--------1--------||*--4h-6-L-(6)-------6---4----L--|
--4--------4--------|--2--------2--------||*-------------------------------|
--2--------2--------|--------------------||--------------------------------|
--------------------|--2--------2--------||---0-------------------------L--|


                                 A#sus4
  S S S S E.  E.  E  S  S S S    E.     S E.  E.  E.  S E
------------------------------|----------------------------|
----------5-------------------|-----------2---0---2--------|
--L-6-L-L-----6---4--6p-4-2-L-|--2------2-------------2-L--|
------------------------------|----------------------------|
------------------------------|--0------L-L---0-------L-L--|
--0------------------L--------|----------------------------|

                              CHORUS 2

                              G#Maj    Freestyle pattern             D#Sus4
  E.  S E.  E.  E.  S E       H        H                    H        H
--------------------------||-----------------------------|------------------|
--------2---0-------------||--3--------0-----------------|--3--------3------|
--2---2---------2---L-2--*||--0--------0-----------------|--2--------2------|
-------------------------*||--0--------0-----------------|--0--------0------|
--0---L-L---0-------L-0---||-----------------------------|------------------|
--------------------------||--5--------5-----------------|--0--------0------|


  Cm                   F        When the river...             G#Maj
  H        H           H        H                    H        H
--------------------|-----------------------------|--------------------|
--3--------3--------|--0--------0-----------------|--3--------0--------|
--4--------4--------|--1--------1-----------------|--0--------0--------|
--4--------4--------|--2--------2-----------------|--0--------0--------|
--2--------2--------|-----------------------------|--------------------|
--------------------|--2--------2-----------------|--5--------5--------|

HUMMING ALONG (solo part)
  D#Sus4               Cm                   F
  H        H           H        H           H        H
--------------------|--------------------|--------------------|
--3--------3--------|--3--------3--------|--0--------0--------|
.-2--------2--------|--4--------4--------|--1--------1--------|
--0--------0--------|--4--------4--------|--2--------2--------|
.-------------------|--2--------2--------|--------------------|
--0--------0--------|--------------------|--2--------2--------|


               D#Maj
    S  S S  S  E.    E.  Q    E     S S S S E.  E.  E  S  S S S
|--------------------------------|------------------------------|
|--------------5-----------------|----------5-------------------|
|*--4h-6-L-(6)-------6---4----L--|--L-6-L-L-----6---4--6p-4-2-L-|
|*-------------------------------|------------------------------|
|--------------------------------|------------------------------|
|---0-------------------------L--|--0------------------L--------|


  A#sus4
  E.     S E.  E.  E.  S E     E.  S E.  E.  E.  S E
----------------------------|--------------------------||
-----------2---0---2--------|--------2---0-------------||
--2------2-------------2-L--|--2---2---------2---L-2--*||
----------------------------|-------------------------*||
--0------L-L---0-------L-L--|--0---L-L---0-------L-0---||
----------------------------|--------------------------||

CHORUS 3 WITH BACKING VOCALS
  G#Maj    Freestyle pattern             D#Sus4      Cm
  H        H                    H        H           H        H
-----------------------------|--------------------|--------------------|
--3--------0-----------------|--3--------3--------|--3--------3--------|
--0--------0-----------------|--2--------2--------|--4--------4--------|
--0--------0-----------------|--0--------0--------|--4--------4--------|
-----------------------------|--------------------|--2--------2--------|
--5--------5-----------------|--0--------0--------|--------------------|


  F        When the river...             G#Maj       D#Sus4
  H        H                    H        H           H        H
-----------------------------|--------------------|--------------------|
--0--------0-----------------|--3--------0--------|--3--------3--------|
--1--------1-----------------|--0--------0--------|--2--------2--------|
--2--------2-----------------|--0--------0--------|--0--------0--------|
-----------------------------|--------------------|--------------------|
--2--------2-----------------|--5--------5--------|--0--------0--------|

                                            Verse 3 WITH HARMONY
  Cm                   F                                 D#Maj
  H        H           H        H             S  S S  S  E.    E.  Q    E
--------------------|--------------------||--------------------------------|
--3--------3--------|--0--------0--------||--------------5-----------------|
--4--------4--------|--1--------1--------||*--4h-6-L-(6)-------6---4----L--|
--4--------4--------|--2--------2--------||*-------------------------------|
--2--------2--------|--------------------||--------------------------------|
--------------------|--2--------2--------||---0-------------------------L--|


                                 A#sus4
  S S S S E.  E.  E  S  S S S    E.     S E.  E.  E.  S E
------------------------------|----------------------------|
----------5-------------------|-----------2---0-------0-L--|
--L-6-L-L-----6---4--6p-4-2-L-|--2------L---------2-----L--|
------------------------------|----------------------------|
------------------------------|--0------L-L---0-------L-L--|
--0------------------L--------|----------------------------|

                             CHORUS
                              G#Maj    Freestyle pattern             D#Sus4
  E.  S E.  E.  E.  S E   4x  H        H                    H        H
--------------------------||-----------------------------|------------------|
--------2---0-------------||--3--------0-----------------|--3--------3------|
--2---2---------2---L-2--*||--0--------0-----------------|--2--------2------|
-------------------------*||--0--------0-----------------|--0--------0------|
--0---L-L---0-------L-0---||-----------------------------|------------------|
--------------------------||--5--------5-----------------|--0--------0------|


  Cm                   F        When the river...             G#Maj
  H        H           H        H                    H        H
--------------------|-----------------------------|--------------------|
--3--------3--------|--0--------0-----------------|--3--------0--------|
--4--------4--------|--1--------1-----------------|--0--------0--------|
--4--------4--------|--2--------2-----------------|--0--------0--------|
--2--------2--------|-----------------------------|--------------------|
--------------------|--2--------2-----------------|--5--------5--------|


  D#Sus4               Cm                   F
  H        H           H        H           H        H
--------------------|--------------------|--------------------|
--3--------3--------|--3--------3--------|--0--------0--------|
--2--------2--------|--4--------4--------|--1--------1--------|
--0--------0--------|--4--------4--------|--2--------2--------|
--------------------|--2--------2--------|--------------------|
--0--------0--------|--------------------|--2--------2--------|

END VERSE
               D#Maj
    S  S S  S  E.    E.  Q    E     S S S S E.  E.  E  S  S S S
|--------------------------------|------------------------------|
|--------------5-----------------|----------5-------------------|
|*--4h-6-L-(6)-------6---4----L--|--L-6-L-L-----6---4--6p-4-2-L-|
|*-------------------------------|------------------------------|
|--------------------------------|------------------------------|
|---0-------------------------L--|--0------------------L--------|


  A#sus4
  E.     S E.  E.  E.  S E     E.  S E.  E.  E.  S E
----------------------------|-------------------------|
-----------2---0---2--------|--------2---0------------|
--2------2-------------2-L--|--2---2---------2---L-2--|
----------------------------|-------------------------|
--0------L-L---0-------L-L--|--0---L-L---0-------L-0--|
----------------------------|-------------------------|


             D#Maj
  S  S S  S  E.    E.  Q    E     S S S S E.  E.  E  S  S S S
-------------------------------|------------------------------|
-------------5-----------------|----------5-------------------|
--4h-6-L-(6)-------6---4----L--|--L-6-L-L-----6---4--6p-4-2-L-|
-------------------------------|------------------------------|
-------------------------------|------------------------------|
--0-------------------------L--|--0------------------L--------|


  A#sus4
                               ^
  E.     S E.  E.  E.  S E     W                   W
----------------------------|--0----------------|--L----------------|
-----------2---0---2--------|--0----------------|--L----------------|
--2------2-------------2-L--|--2----------------|--L----------------|
----------------------------|--2----------------|--L----------------|
--0------L-L---0-------L-L--|--0----------------|--L----------------|
----------------------------|-------------------|-------------------|


-------------------||
-------------------||
-------------------||
-------------------||
-------------------||
-------------------||


Duration Legend
---------------
W - whole
H - half
Q - quarter
E - 8th
S - 16th
T - 32nd
X - 64th
. - note dotted
|-n-|  - n-tuplets


Tablature Legend
----------------
L - tied note
x - dead note
g - grace note
(n) - ghost note
> - accentuded note
NH - natural harmonic
AH - artificial harmonic
TH - tapped harmonic
SH - semi harmonic
PH - pitch harmonic
h - hammer on
p - pull off
b - bend
br - bendRelease
pb - preBend
pbr - preBendRelease
brb - bendReleaseBend
\n/ - tremolo bar dip
\n - tremolo bar dive
-/n - tremolo bar Release up
/n\ - tremolo bar inverted dip
/n - tremolo bar return
-\n - tremolo bar Release down
S - shift slide
s - legato slide
/ -  slide into from below or out of upwards
\ -  slide into from above or out of downwards
~ - vibrato
W - wide vibrato
tr - trill
TP - tremolo picking
T - tapping
S - slap
P - pop
< - fade in
^ - brush up
v - brush down
Добавлено: 31.05.2012
Другие материалы по этой песне:
  • Аккорды и текст

Страница создана 31.05.2012
http://primanota.ru/kane/high-places-chords.htm
Привет, Гость.
Предлагаем пройти революционный курс по гитаре.
Подарок от PrimaNota.Ru, забирай!