PrimaNota.ru - самый крупный в мире бесплатный архив песенных текстов, аккордов, табулатур и нот


Kane - Dead End - аккорды и текст, таба, видео

Регистрация Запомнить меня
Войти через:  Facebook Google Twitter Vk Yandex Mail.ru

Kane - Dead End - аккорды и текст, таба, видео

Печатать
Просмотров: 122
Dead End
Kane
Chords:
 
C 335553
G 355433
Am 577555
F 133211 


Note:

D# G# C# A# D#, half step down


[riff 1]

Eb--------------------------------------------------------------------------|
A# --------------------------------------------------------------------------|
F# --------------0--------------------------0--------------------------------|
C# -------0------------0h2------------0------------0h2------------2h3--------|
G# 2h3--------------------------2h3--------------------------3------------3--|
D# --------------------------------------------------------------------------|


[riff 2]

Eb---------------------------------------------------------------|
A# ---------------------------------------------------------------|
F# --------------0---------------------------------0--------------|
C# ---------------------3---------------------------------3-------|
G# -------3-------------------3------------3-------------------3--|
D# 1---------------------------------1----------------------------|

[riff 3]

Eb------------------------------------------|
A# ------------------------------------------|
F# --------------0---------------------------|
C# ---------------------3--------------------|
G# -------3-------------------3--------------|
D# 1--------------------------------------1--|


[riff 4]

Eb---------------------------------------------------------|
A# ---------------------0--------------------------0-----1--|
F# --------------0--------------------------2---------------|
C# -----------------------------------2---------------------|
G# -------2-------------------0-----------------------------|
D# 3--------------------------------------------------------|


[intro]
Riff 1 Riff 2 Riff 1 Riff 3

Riff 1 Riff 2
Stay tonight , let me hold you like I never did before.
Riff 1 Riff 2
Take my arms, let me hold you like I never did before

Riff 4 Riff 2
And I should have tried just to talk about this, waiting, ending
Riff 4 Riff 3
And I should have tried just to let you know that I'm, still here
Riff 1 Riff 2
So before you let me go

Riff 1 Riff 2
Take my hands, let me touch you like I never did before
Riff 1 Riff 2
Take my heart and let me love you like I never did before
Like I never did before

Riff 4 Riff 2 
And I should have tried just to talk about it, waiting, ending
Riff 4 Riff 2 
And I should have tried just to let you know that I'm still here


[riff 5] play during chorus

Eb--------3-------------------------------------------3--------3--------3-----3-----3h5p3--|
A# ---1--------1-----0-----1-----3-----1-----0----------1--------1--------1------1-----------|
F# ------------------------------------------------------------------------------------------|
C# ------------------------------------------------------------------------------------------|
G# ------------------------------------------------------------------------------------------|
D# ------------------------------------------------------------------------------------------|


[chorus]
C
But we waste it every time,
G Am
Now my heart is on the line,
G F
And we see ourselfs no more.
C
When we're closing every door,
G Am
It's so much harder than before,
F
So before you let me go
C
Before you let me go


[riff 6]

Eb------------------------------------------------------1--0--|
A# -------1-----1h3-----1-----1h3-----1-----3------------3--1--|
F# -------0-----0--------0-----0--------0----------------------|
C# ------------------------------------------------------------|
G# 3-----------------------------------------------------------|
D# ------------------------------------------------------------|


[riff 7]

Eb-------------------------------------------------1---0------|
A# -------1-----1h3-----1-----1h3---1---3-----------3---1------|
F# -------2-----2--------2-----2------2------------------------|
C# ------------------------------------------------------------|
G# ------------------------------------------------------------|
D# 1-----------------------------------------------------------|


Riff 6 Riff 7

C (Riff 6)
Save the dance and let me spin you,
F (Riff 7)
Till your world is turning round and round,

Round and round, Round and round
C (Riff 6)
Save the chance and let me show you,
F (Riff 7) 
Just like You need a little more,
G
Just like you need a little more.
Am F
And I should have tried just to talk about it, waiting , ending
G Am F
I should have tried just to let you know that I'm still here.


[chorus] (Riff 5)
C
But we waste it every time,
G Am
Now my heart is on the line,
G F
And we see ourselfs no more.
C
When we're closing every door,
G Am
It's so much harder than before,


[solo] something like this 

Eb------------------------------------------------------------------0--|
A# -------3-----1-----0-----4b-------1-----1-----0h1p0-------------------|
F# ---------------------------------------------------------------2------|
C# ----------------------------------------------------------------------|
G# ----------------------------------------------------------------------|
D# ----------------------------------------------------------------------|

F
So before you let me go
C
Before you let me go


[riff 8]

Eb15---------15---------15-------------------------------15------15-----15----------15h17p15--|
A# -----13----------13---------13-12-13-15-13-12--------13------13------13---------------------|
F# --------------------------------------------------------------------------------------------|
C# --------------------------------------------------------------------------------------------|
G# --------------------------------------------------------------------------------------------|
D# --------------------------------------------------------------------------------------------|


[chorus] (Riff 8)
C
But we waste it every time,
G Am
Now my heart is on the line,
G F
And we see ourselfs no more.
C
When we're closing every door,
G Am
It's so much harder than before,

C (Riff 5)
But we waste it every time,
G Am
Now my heart is on the line,
G F
And now we bruise with every step.
C (Riff 5)
When we're closing every door,
G Am 
Can we make it easier,
F
Some time?
F
Some time.
Добавлено: 23.08.2013
Другие материалы по этой песне:
  • Аккорды и текст

Страница создана 22.02.2012
http://primanota.ru/kane/dead-end-chords.htm
Привет, Гость.
Предлагаем пройти революционный курс по гитаре.
Подарок от PrimaNota.Ru, забирай!